Tihuana

Tropa De Elite

Tihuana

6.013 exibições
afine a E em D, e note que ela tem muitos contras.

( ~~ ) Trêmulo
 
INÍCIO
                                                
G--------------------------------------------    
D--------------------------------------------    
A--------5~~-------5~~-------5~~-------------    
D--0--00-----0--00-----0--00------0-1-2-3----    
                                                 
G---------------------------------------------
D---------------------------------------------
A---------------------------------------------  
D--0--565-3-0--5653-0--565-0-3-5-6-7----------

BASE

G---------------------------------------------
D--------------------------------------------- 
A--5-5-5------5-5-5------5-5-5----------------   PARTE 1 
D--------567--------567--------567--5--5-3-3--
        (ligado)   (ligado)   (ligado)

G---------------------------------------------
D---------------------------------------------
A--5-5-5-----5-5-5-----5-5-5------------------   PARTE 2
D--------567-------567-------567--3-5-6-7-----
       (ligado   (ligado)  (ligado)

REPETE PARTE 1

G---------------------------------------------
D---------------------------------------------
A--5-5-5-----5-5-5-----5-5-5------------------
D--------567-------567-------567--7-6-5-3-----

REFRÃO  
G--------------------------------------------    
D--------------------------------------------    
A--------5~~-------5~~-------5~~-------------    REF. 1
D--0--00-----0--00-----0--00------0-1-2-3----    
                                                                                                                                                                     
G---------------------------------------------
D---------------------------------------------  
A---------------------------------------------   REF. 2
D--0--565-3-0--5653-0--565-3-0-1-2-3----------

G--------------------------------------------    
D--------------------------------------------    
A--------5~~-------5~~-------5~~-------------    
D--0--00-----0--00-----0--00------0-1-2-3----    

G---------------------------------------------
D---------------------------------------------
A---------------------------------------------  
D--0--565-3-0--5653-0--565-3-0--------3-5-6-7-


REPETE PARTE 1
REPETE PARTE 2
REPETE PARTE 1

G---------------------------------------------
D---------------------------------------------
A--5-5-5-----5-5-5-----5-5-5------------------
D--------567-------567-------567--7-6-5-3-----

PONTE

G-------------------------      G-------------------------
D-------------------------  OU  D--12-12-14-12-15-12-17-15  8X
A-------------------------      A-------------------------
D-0-0-2-0-3-0-5-3---------      D-------------------------

REF. 1
REF. 2  
REF. 1

PONTE 4X

G-------------------------
D-------------------------
A-------------------------   3X
D-0-00-00-00-00-00-00-----

REF. 1
REF. 2
REF. 1

G---------------------------------------------------------------
D---------------------------------------------------------------  
A---------------------------------------------------------------   
D--0--565-3-0--5653-0--565-3-0-1-2-3--0-1-2-3--0-1-2-3--0-1-2-3-

G--------------------------
D--------------------------
A--------------------------   
D-0-00-00-----0-00-00----0-


Enviada por Sem inscrição
Nº de acordes: