G|-------------------|
D|-(strum repeatedly)|
A|-------------------|
D|-0-----------------|
   1 & 2 & 3 & 4 &


G|---------------------------------|
D|---------------------------------|
A|-------4-5---7-9---4-5-------4-5-|
D|-0-2-0-----0-----0-------0-2-----|
   1 & 2 & 3 & 4 & 1 & 2 & 3 & 4 &


G|---------------------------------|
D|---------------------------------|
A|-------4-5---7-9---4-5-7---7-7-7-|
D|-0-2-0-----0-----0---------------|
   1 & 2 & 3 & 4 & 1 & 2 & 3 & 4 &


G|---------------------------------|
D|---------------------------------|
A|-------4-5---7-9---4-5-------4-5-|
D|-0-2-0-----0-----0-------0-2-----|
   1 & 2 & 3 & 4 & 1 & 2 & 3 & 4 &


G|---------------------------------|
D|---------------------------------|
A|-------4-5---7-9---4-5-7-5-7-5-4-|
D|-0-2-0-----0-----0---------------|
   1 & 2 & 3 & 4 & 1 & 2 & 3 & 4 &


G|-----------------------------------------------------------------|
D|-----------------------------------------------------------------|
A|-----------------------------------------------------------------|--
D|-0---0---0-0---0---0-0---0-0-0-0-5---5---5-5---0---0-0---0-0-0-0-|  |
   1 & 2 & 3 & 4 & 1 & 2 & 3 & 4 & 1 & 2 & 3 & 4 & 1 & 2 & 3 & 4 &    |
								      |--2x
								      |
G|-----------------------------------------------------------------|  |
D|-----------------------------------------------------------------|  |
A|-3---3---3-3-----------------------------------------7---9-7-5-4-|--
D|---------------5---5-5---5-5-5-7-7---7---7-7---7---7---7---------|
   1 & 2 & 3 & 4 & 1 & 2 & 3 & 4 & 1 & 2 & 3 & 4 & 1 & 2 & 3 & 4 &


G|-------------------------------------------------|
D|-------------------------------------------------|
A|---------------0-----------0---2-----------2---3-|
D|-5-----------------------------------------------|
   1 & 2 & 3 & 4 & 1 & 2 & 3 & 4 & 1 & 2 & 3 & 4 &


G|------------------------------------------------------------------|
D|------------------------------------------------------------------|
A|-------7-7--------------------------------------------------------|
D|-0---0-----0-0-0---0-0---0-0-0-0-5---5---5-5-5-5---5-5---5-5-5-5/-|
   1 & 2 & 3 & 4 & 1 & 2 & 3 & 4 & 1 & 2 & 3 & 4 & 1 & 2 & 3 & 4 &


G|----------------------------------------|
D|----------------------------------------|
A|----------------------------------------|
D|-10-10-10-10-10-10-10-5-5-5-5-5-5-5-5-5-|
   1  &  2  &  3  &  4  & 1 & 2 & 3 & 4 &


G|---------------------------------|
D|---------------------------------|
A|-------4-5---7-9---4-5-7-7-7-7-7-|
D|-0-2-0-----0-----0---------------|
   1 & 2 & 3 & 4 & 1 & 2 & 3 & 4 &


G|-------------------------------------------------|
D|-------------------------------------------------|
A|-----------------------------------------------0-|
D|-5---5---5-5-5-5-5-5-5-5-5-5-5-5-2-2-2-2-2-2-2---|
   1 & 2 & 3 & 4 & 1 & 2 & 3 & 4 & 1 & 2 & 3 & 4 &


G|---------------------------------|
D|---------------------------------|
A|-------4-5---7-9---4-5-------4-5-|
D|-0-2-0-----0-----0-------0-2-----|
   1 & 2 & 3 & 4 & 1 & 2 & 3 & 4 &


G|---------------------------------|
D|---------------------------------|
A|-------4-5---7-9---4-5-7-7-7-7-7-|
D|-0-2-0-----0-----0---------------|
   1 & 2 & 3 & 4 & 1 & 2 & 3 & 4 &


G|-----------------------------------------------------------------|
D|-----------------------------------------------------------------|
A|-----------------------------------------------------------------|--
D|-0---0---0-0---0---0-0---0-0-0-0-5---5---5-5---0---0-0---0-0-0-0-|  |
   1 & 2 & 3 & 4 & 1 & 2 & 3 & 4 & 1 & 2 & 3 & 4 & 1 & 2 & 3 & 4 &    |
								      |--2x
								      |
G|-----------------------------------------------------------------|  |
D|-----------------------------------------------------------------|  |
A|-3---3---3-3-----------------------------------------7---9-7-5-4-|--
D|---------------5---5-5---5-5-5-7-7---7---7-7---7---7---7---------|
   1 & 2 & 3 & 4 & 1 & 2 & 3 & 4 & 1 & 2 & 3 & 4 & 1 & 2 & 3 & 4 &


G|-------------------------------------------------|
D|-------------------------------------------------|
A|---------------0-----------0---2-----------2---3-|
D|-5---------5-------------------------------------|
   1 & 2 & 3 & 4 & 1 & 2 & 3 & 4 & 1 & 2 & 3 & 4 &


G|------------------------------------------------------------------|
D|------------------------------------------------------------------|
A|-------7-7--------------------------------------------------------|
D|-0---0-----0-0-0---0-0---0-0-0-0-5---5---5-5-5-5---5-5---5-5-5-5/-|
   1 & 2 & 3 & 4 & 1 & 2 & 3 & 4 & 1 & 2 & 3 & 4 & 1 & 2 & 3 & 4 &


G|----------------------------------------|
D|----------------------------------------|
A|----------------------------------------|
D|-10-10-10-10-10-10-10-5-5-5-5-5-5-5-5-5-|
   1  &  2  &  3  &  4  & 1 & 2 & 3 & 4 &


G|---------------------------------|
D|---------------------------------|
A|-------4-5---7-9---4-5-7-7-7-7-7-|
D|-0-2-0-----0-----0---------------|
   1 & 2 & 3 & 4 & 1 & 2 & 3 & 4 &


G|-------------------------------------------------|
D|-------------------------------------------------|
A|-----------------------------------------------0-|
D|-5---5---5-5-5-5-5-5-5-5-5-5-5-5-2-2-2-2-2-2-2---|
   1 & 2 & 3 & 4 & 1 & 2 & 3 & 4 & 1 & 2 & 3 & 4 &


G|---------------------------------|
D|---------------------------------|
A|-------4-5---7-9---4-5-------4-5-|
D|-0-2-0-----0-----0-------0-2-----|
   1 & 2 & 3 & 4 & 1 & 2 & 3 & 4 &


G|---------------------------------|
D|---------------------------------|
A|-------4-5---7-9---4-5-7-7-7-7-7-|
D|-0-2-0-----0-----0---------------|
   1 & 2 & 3 & 4 & 1 & 2 & 3 & 4 &


G|---------------------------------|
D|---------------------------------|
A|-------------------------0-0-0-0-|
D|-5-5-5-5-5-5-5-4-4-4-4-4---------|
   1 & 2 & 3 & 4 & 1 & 2 & 3 & 4 &


G|---------------------------------|
D|---------------------------------|
A|-------4-5---7-9---4-5-7-5-7-5-4-|
D|-0-2-0-----0-----0---------------|
   1 & 2 & 3 & 4 & 1 & 2 & 3 & 4 &


G|---------------------------------|
D|---------------------------------|
A|---------------------------------|
D|-5-5-5-5-5-5-5-4-4-4-4-4/7-7-7-7-|
   1 & 2 & 3 & 4 & 1 & 2 & 3 & 4 &


G|-------------------------------------------------|
D|-------------------------------------------------|
A|-------------------------------------------------|
D|-5-------------7-----------7-\-4-----------4---5-|
   1 & 2 & 3 & 4 & 1 & 2 & 3 & 4 & 1 & 2 & 3 & 4 &


G|---------------------------------------------------|
D|---------------------------------------------------|
A|---------------------------------------------------|
D|-5---------5---7-----------7---9-----------9---10\-|
   1 & 2 & 3 & 4 & 1 & 2 & 3 & 4 & 1 & 2 & 3 & 4 &


G|---------------------------------|
D|---------------------------------|
A|-3-3-3-3-3-3-3-------------------|
D|---------------5-5-5-5-5-5-5-5-5-|
   1 & 2 & 3 & 4 & 1 & 2 & 3 & 4 &


G|---------------------------------|
D|---------------------------------|
A|-------4-5---7-9---4-5-7-7-7-7-7-|
D|-0-2-0-----0-----0---------------|
   1 & 2 & 3 & 4 & 1 & 2 & 3 & 4 &


G|-------------------------------------------------|
D|-------------------------------------------------|
A|-----------------------------------------------0-|
D|-5-5-5-5-5-5-5-5-5-5-5-5-5-5-5-5-2-2-2-2-2-2-2---|
   1 & 2 & 3 & 4 & 1 & 2 & 3 & 4 & 1 & 2 & 3 & 4 &


G|---------------------------------|
D|---------------------------------|
A|-------4-5---7-9---4-5-------4-5-|
D|-0-2-0-----0-----0-------0-2-----|
   1 & 2 & 3 & 4 & 1 & 2 & 3 & 4 &


G|---------------------------------|
D|---------------------------------|
A|-------4-5---7-9---4-5-7---7-7-7-|
D|-0-2-0-----0-----0---------------|
   1 & 2 & 3 & 4 & 1 & 2 & 3 & 4 &


  2x				    2nd time
G|-------6-7-------------7-----6-7-|--------|
D|---------------------------------|--------|
A|-------------7-9---4-5-----------|--------|
D|-0-2-0-----0-----0-------0-2-----|-0------|
   1 & 2 & 3 & 4 & 1 & 2 & 3 & 4 &   1 &


Enviada por Sem inscrição
Nº de acordes: