Strike

Paraíso Proibido

Strike

1.849 exibições
intro

G---------------4-----------------
D-------4-2--------4-1-2-1---------
A---22--------------------------- 2x
E-----------22--------------------

G-------------------------------
D-------------------------------
A---22222---------------------- 2X
E---------000000-44444-22222----

INTRO NOVAMENTE

 (Agora que estou 'vou' tendo que me esconder )

G--------------------------------
D-------4-2------4-1-2-1---------
A---22--------------------------- 2x
E-----------22--------------------

pre refrão (Mas nao venha me dizer o que e melhor pra mim...)

G--------------------------------------------
D---------------------------------------------
A---22222222-----------6-4-------------------- 1X
E------------22222222-------00000000-22222222---

REFÃO

G-----------------------
D-----------------------
A---22------------------ 2x
E------22-44444-00000---

G------------------------------------------
D------------------------------------------
A---222222222------------------------------ 1x
E-------------22222222-44444444-00000000---

G----------------------------------
D----------------------------------
A---22222222----------------------- 1x
E------------22222222-00000000-2---

intro novamente

G--------------------------------
D-------4-2------4-1-2-1---------
A---22--------------------------- 2x
E-----------22--------------------

pre refrão

G--------------------------------------------
D---------------------------------------------
A---22222222-----------6-4-------------------- 1X
E------------22222222-------00000000-22222222---

REFÃO

G-----------------------
D-----------------------
A---22------------------ 2x
E------22-44444-00000---

G------------------------------------------
D------------------------------------------
A---222222222------------------------------ 1x
E-------------22222222-44444444-00000000---

G----------------------------------
D----------------------------------
A---22222222----------------------- 1x
E------------22222222-00000000-2---

G---------------------------------
D----------------------------------
A-22------2222--------------------
E---------------------------------

ponte 

 (Eu não vou desistir de ter você)

G---------------------------------------
D---------------------------------------
A---2222222----------------------------- 2x
E----------2222222--4444-2222-0000-2222-

refão e depois fim


Enviada por darlan
Nº de acordes: