INTRO

G------------------------------------------------------
D---------------------------5-5-7-5--------------------
A---------5-5-7-5---3-3-7-7---------7---------5-5-7-5--
E-3-3-7-7---------7-------------------3-3-7-7---------7

G------------------------------------------------------
D------------3-4-5-5-3-3-2-2-0-------------------------
A---3-4-5--5-------------------0-2-3-3-----------------
E-3------------------------------------0-0-1-1-2-2-3-3-

G------------------------------------------------------
D-----------------------------------------------5-5-7-5
A-----5-5-7-5---------0-0-0-1-1-1-2-2-2-3-3-7-7--------
E-7-7---------7-3-3-3----------------------------------

G------------------------------------------------------
D---------------------------------3-4-5-5-5-3-3-3-2-2-2
A-7-3-3-----------------2-2-3-3-4----------------------
E-------0-0-1-1-2-2-3-3--------------------------------

G------------------------------------------------------
D-5----------------------------------------------------
A---3-4-5-5-----------0-2-3-3-------------------0-2-3-3
E-----------2-2-3-3-4---------0-0-1-1-2-2-3-3-3--------

G-------------------
D-------------------
A-3-----------3-4-5-
E---0-2-3-3-3-------

                 VERSE

G-----------------------------------------------------
D---3-4-5-5-3-3-2-2-0---------------------------------
A-5-------------------0-2-3-3---------------------5-5-
E-----------------------------0-0-1-1-2-2-3-3-7-7-----

G------------------------------------------------------
D---------------------------------------5-5-7-5--------
A-7-5---------0-0-0-1-1-1-2-2-2-3-3-7-7---------7-3-3--
E-----7-3-3-3------------------------------------------

G---------------------------------------------------
D---------------------------------------------------
A---------------------5-5-7-5-------2-2-3-3-4-4-5-5-
E-0-0-1-1-2-2-3-3-7-7---------7-3-3-----------------

G-----------------------------------------------------
D-----------------------------------------------------
A-----------0-2-3-3-------------------0-2-3-3-3-------
E-2-2-3-3-4---------0-0-1-1-2-2-3-3-3-----------0-2-3-

G-----------
D-----------
A-----3-4-5-
E-3-3-------

THE VERSE KEEPS GETTING REPEATED FOR THE REST OF THE
SONG.

HERE IS A CHANGE THAT CAN BE PLAYED AT THE START OF THE
GUITAR SOLO. SWAP THESE NOTES IN PLACE OF THE ONES AT
THE START OF THE VERSE AND THEN CONTINUE ON THROUGH THE
VERSE.

G-------------------------------------
D-5-5-3-3-2-2-0-0---------------------
A-----------------3-3-1-1-0-0---------
E-----------------------------3-0-2-3-


Enviada por Sem inscrição
Nº de acordes: