h=hammer on

Intro/Refrão devagar

G-17-17-17-17--17-17-17-17--17-17-17-17-17-17-17-17--14-14-14-14 
D-15-15-15-15--15-15-15-15--14-14-14-14-14-14-14-14--14-14-14-14
A---------------------------------------------------------------
E---------------------------------------------------------------

Intro continuação
G-14-14-14-14--14-14-14-14--14-14-14-14-------------------------
D-14-14-14-14--14-14-14-14--14-14-14-14-------------------------
A---------------------------------------------------------------
E---------------------------------------------------------------

Verso (Tente fazer um pouco rápido, ficará legal)
G---------------------------------------------------------------------
D---------3------------------3-----------------3----------------------
A--55-3h5--3h5-0h3---55-3h5---0h3--------55-3h5--3h5-0h3--55-3h5556666
E---------------------------------3h5---------------------------------

Refrão
G------------------------------------------------
D---333-5-3-2----222---0-000-0-000-0-22---------- 
A------------333---------------------------------           
E------------------------------------------------
Continuação do Refrão
G------------------------------------------------
D---333-5-3-2----222-----------------------------   
A------------333-------0-000-0-1111-33-----------
E------------------------------------------------

Qualquer dúvida me mandem um e-mail.


Enviada por Sem inscrição
Nº de acordes: