Raul Seixas

Tente Outra Vez

Raul Seixas

8.727 exibições
intro

|----------------------------12/14-12/14--12/14-12/14-14-14-14-12/14-14-14-14--
|-5/7-5/7--5/7-5/7-5/7--5/12------------------------------------------
|---------------------------------------------------------------------
|---------------------------------------------------------------------

Veja! nao diga q a canção está perdida....

|-----------------------------------------------------------------------------------------
|------------------------------5-7-5-5--5-5-5--5h7----------------------------------------
|-0-0--0-0-0-2-3-3-3--3-3-3--3---------------------5-5--5-5-5--(rapido-5-7-5----------------
|-----------------------------------------------------------------------------7-5-5)-5-5-5--

Tente outra vez...

|--------------------------------------------------------------------------------------
|-------------------------------------------------------------------------------5-7-5-5-
|-----------------------------2-2--2/7-5/7-5/7--7--0-0--0-0-0-2-3-3--3-3-3--3------
|-7-8-7-5-3-3--3-3-3-3--3h5------------------------------------------

|---------------------------------------------------
|-5-5-5--5h7----------------------------------------
|------------5-5--5-5-5-(rapido-5-7-5---------------
|-------------------------------------7-5-5)--5-5-5-

Nada acabouuu....

|-------------------------------------------
|-----------------------------5-3/5-5-5-3/5-5-5-3/5-5-3/5-5-3/5-5--
|---------------------------5-----------------
|-7-8-7-5-3-3--3-3-3--5-7-8----------------------------------------

OHHHHHHHHHHHHOHHHHHHHHHOHHHHHHHHHHHHHHHH Tenteee....

|-------------------------------------------------------------------------------------
|----------------------------------------------------------------5-----5---5--5/7-----
|-3-3--3---0-3----3-3----3-3------2-2----2-2---2-3-3--3---0-3--3-----3---3--------5-5-
|--------3------3------3------3-5------3-----3----------3-----------------------------

Há uma voz q canta, uma voz q dança..........

|-------------------------------------------
|-12-10--------12-10----------12-10-----------------------
|-------12-----------12-------------12----------8-8--8-6-----
|----------8-8----------10-10----------8-8-8-10----------8-0----


Bailando no arrrr..


|------------------------------------------
|------------------------------------------
|------------2-3-5-5--5h7-7-7--7-7-5/7---
|-3-3--3-3-3-------------------------------


Queira... Basta ser sincero e desejar profundo


|-------------------------------------------
|--------------------------5/75-----5-5--5-5-5--5h7------------
|-0-0--0-0-0--2-3-3--3-3/7-------5-7-----------------5-5--5-5-5--5h7------------------
|--------------------------------------------------------------------5-5--5-5-5-----------

Tente outra vez....


|-------------------------------------------
|-------------------------------------------------------------5-7-5-5--5-5-5--5/7--------
|------------------------------5-0-0--0-0-0--2-3-3--3-3-3-5-7---------------------5--5-5----
|-7-8-7-5-3--3-3--3-3-3--5-7-8-------------------------------------------------------------


|------------------------------------
|------------------------------------
|--5-5-5--5/7------------------------
|-------------5--5-5--5-5-7-8-7-5-3--
 
 


Enviada por Sem inscrição
Nº de acordes: