Raimundos

Andar Na Pedra

Raimundos

446 exibições
ANDAR NA PEDRA by RAIMUNDOS. Album: Lapadas do povo
ótima música. Muita energia também no CD ao vivo...
Calangos do cerrado ainda apavoram véi...

intro:
G-|---------------------|------------------->
D-|---------------------|------------------->
A-|-----5-5-----5-5---3-|-----5-5-----5---3->
D-|-0-0-----0-0-----0---|-0-0-----0-0---0--->

G-|---------------------|------------------->
D-|---------------------|------------------->
A-|-----5-5-----5-5---3-|-----5-5-----5---3->
D-|-0-0-----0-0-----0---|-0-0-----0-0---0--->

G-|---------------------------------------------->
D-|---------------------------------------------->
A-|---------------------------------------------->
D-|-0-0--3-5--0-0-0--3-5-6--0-0--3-5--0-0-0--3-2->

G-|---------------------------------------------------------->
D-|---------------------------------------------------------->
A-|---------------------------------------------------------->
D-|-0-0--3-5--0-0-0--3-5-6--0-0--3-5--0-0-0--3-3-3-3-3-3-3-3->

verso 1:
G-|------------------------|------------------------|----------------------->
D-|------------------------|------------------------|----------------------->
A-|----------------6-5-3---|-----------------6-5-3--|---------------6-5-3--->
D-|-00--00--00--00-------2-|-00--00--00--00-------2-|-00--00--00--00------2->

G-|--------------------------->
D-|--------------------------->
A-|-----------------6-5-3----->
D-|-00--00--00--00-------2-0~->

G-|------------------------|----------------------|-------------------------------------->
D-|------------------------|----------------------|-------------------------------------->
A-|------------------------|----------------------|----------------------6-6-6-6-6-6-6-6->
D-|-00-3-3-5-6-6-3-3-3-5-3-|-00-3-3-5-6-3-3-3-5-3-|-00-3-3-5-6-3-3-3-5-3----------------->

G-|------------------------|----------------------|----------------------->
D-|------------------------|----------------------|----------------------->
A-|----------------6-5-3---|---------------6-5-3--|----------------6-5-3-->
D-|-00--00--00--00-------2-|-00--00--00--00-----2-|-00--00--00--00------2->

G-|------------------------>
D-|------------------------>
A-|-----------------6-5-3-->
D-|-00--00--00--00-------2->

refrão: ("Carcaça grossa deixa a marca no chão...")
G-|---------------------------------------------->
D-|---------------------------------------------->
A-|---------------------------------------------->
D-|-0-0--3-5--0-0-0--3-5-6--0-0--3-5--0-0-0--3-2->

G-|---------------------------------------------------------->
D-|---------------------------------------------------------->
A-|---------------------------------------------------------->
D-|-0-0--3-5--0-0-0--3-5-6--0-0--3-5--0-0-0--3-3-3-3-3-3-3-3->

verso 2: ("Segura a onda menina, levanta a saia...")
G-|------------------------------|--------------------------------------->
D-|------------------------------|--------------------------------------->
A-|-----------------6-5-3/6------|-----------------------6-6-6-6-6-6-6-6->
D-|-00--00--00--00---------0-0-0-|-00-3-3-5-6-6-3-3-3-5-3---------------->

G-|------------------------------------------|--------------------------------------->
D-|-------------------------7-7-7-7-7-7-7-7--|--------------------------------------->
A-|------------------------------------------|-----------------------6-6-6-6-6-6-6-6->
D-|-00-3-3-5-6-6-3-3-3-5-3-------------------|-00-3-3-5-6-6-3-3-3-5-3---------------->

G-|---------------------------------------->
D-|------------------------7-7-7-7-7-7-7-7->
A-|---------------------------------------->
D-|-00-3-3-5-6-6-3-3-3-5-3----------------->

G-|-----------------------|-----------------------|---------------------->
D-|-----------------------|-----------------------|---------------------->
A-|----------------6-5-3--|----------------6-5-3--|---------------6-5-3-->
D-|-00--00--00--00------2-|-00--00--00--00------2-|-00--00--00--00-----2->

G-|------------------------>
D-|------------------------>
A-|-----------------6-5-3-->
D-|-00--00--00--00-------2->

Refrão 2:
G-|---------------------------------------------->
D-|---------------------------------------------->
A-|---------------------------------------------->
D-|-0-0--3-5--0-0-0--3-5-6--0-0--3-5--0-0-0--3-2->

G-|---------------------------------------------->
D-|---------------------------------------------->
A-|---------------------------------------------->
D-|-0-0--3-5--0-0-0--3-5-6--0-0--3-5--0-0-0--3-2->

G-|---------------------------------------------->
D-|---------------------------------------------->
A-|---------------------------------------------->
D-|-0-0--3-5--0-0-0--3-5-6--0-0--3-5--0-0-0--3-2->

G-|------------------------>
D-|------------------------>
A-|------------------------>
D-|-0-0--3-5--0-0-0--3-5-6->

final:
G-|------------------------------------------------------------>
D-|-5/7-7---7-8-7---------------------------------------------->
A-|-------5--------7-7-7-7-7-7-7-7/4-4-4-4-4-4-4--------------->
D-|------------------------------------------------7-7-7-6-6-6->

G-|------------------------------------------------------------>
D-|-5/7-7---7-8-7---------------------------------------------->
A-|-------5--------7-7-7-7-7-7-7-7/4-4-4-4-4-4-4--------------->
D-|------------------------------------------------7-7-7-6-6-6->

G-|------------------------------------------------------------>
D-|-5/7-7---7-8-7---------------------------------------------->
A-|-------5--------7-7-7-7-7-7-7-7/4-4-4-4-4-4-4--------------->
D-|------------------------------------------------7-7-7-6-6-6->

G-|------------------------------------------------------------>
D-|-5/7-7---7-8-7---------------------------------------------->
A-|-------5--------7-7-7-7-7-7-7-7/4-4-4-4-4-4-4--------------->
D-|------------------------------------------------7-7-7-6-6-6->

G-|-------------------------------------------------------------------------------------->
D-|--------------------------------5/7-7---7-8-7----------------------------------------->
A-|--------------------------------------5--------7-7-7-7-7-7-7-7------------------------>
D-|-9-7--9-7--9-7--7-6--7-6--7-6----------------------------------9-7--9-7--9-7--7-6-7-6->

G-|------------------------------------------------------------>
D-|-5/7-7---7-8-7---------------------------------------------->
A-|-------5--------7-7-7-7-7-7-7-7/4-4-4-4-4-4-4--------------->
D-|------------------------------------------------7-7-7-6-6-6->

G-|-------------------------------------------------------------------------------------->
D-|--------------------------------5/7-7---7-8-7----------------------------------------->
A-|--------------------------------------5--------7-7-7-7-7-7-7-7------------------------>
D-|-9-7--9-7--9-7--7-6--7-6--7-6----------------------------------9-7--9-7--9-7--7-6-7-6->

G-|------------------------------------------------------------>
D-|-5/7-7---7-8-7---------------------------------------------->
A-|-------5--------7-7-7-7-7-7-7-7/4-4-4-4-4-4-4--------------->
D-|------------------------------------------------7-7-7-6-6-6->

G-|----------------|
D-|-5/7-7---7-8-7--|
A-|-------5--------|
D-|----------------|

"Aleluia, acabou mas valeu a pena..."


Enviada por Sem inscrição
Nº de acordes: