Raimundos

Alegria

Raimundos

161 exibições
Essa música ela é muito rápida, portanto escute o CD
para pegar o compasso.


x - nota muda!
/ ou = slide p/cima ou p/baixo
h= hammer on - martelar a corda com o dedo direito ou esquerdo
p - soltar a corda
b - empurrar a corda p/cima ou p/baixo
p.m - tocar abafado
~ - vibrato, deixe a corda vibrar através de uma alavanca ou empurrando com o dedo
--------------------------------------------------------------------

introdução: ("La-la-la-la-la...")
G-|------------>
D-|------------>
A-|----5-----5->
E-|-5-----5---->

G-|-------------------------------------------------------->
D-|-------------------------------------------------------->
A-|---7-3-5-3-----7-3-5--------7-3-5-3----7-3-5---------->
E-|-5---------3-5--------1-3-5---------3-5-------1-1-1-1->

narração:
G-|----------------------------------------------------------------------->
D-|----------------------------------------------------------------------->
A-|------------------0-0-0-0-0-0-0-0------------------------------------->
E-|-3-3-3-3-3-3-3-3------------------3-3-3-3-3-3-3-3--1-1-1-1--0-0-0-0->

G-|-------------------------------------------------------------->
D-|-------------------------------------------------------------->
A-|------------------------------------3-2----------------------->
E-|-3-3-3-3-3-3-3-3--5-5-5-5-5-5-5-5-----5-3-1-1-1-1--0-0-0-0->

"Alegria!!!!!"
G-|----------------------------->
D-|----------------------------->
A-|---7-3-5-3-----7-3-5-3------>
E-|-5---------3-5----------1-3->

versos:	("viver só de dar bola nesse mundo...")
	("pois para poupar camisinha...")
G-|-------------------------------------------------------->
D-|-------------------------------------------------------->
A-|---7-3-5-3-----7-3-5--------7-3-5-3-----7-3-55555555->
E-|-5---------3-5--------1-3-5---------3-5---------------->

refrão: ("levanto os olhos pro céu e grito...")
G-|-------------------------------------|--------------------------------------|
D-|-------------------------------------|--------------------------------------|
A-|-------------------------------------|--------------------------------------|
E-|-7-7-7-7-7-7-7-7--3-3-3-3--2-2-2-2-|-7-7-7-7-7-7-7-7--3-3-3-3--2-2-2-2-|

("usa rédeas e bitola...acorda!")
("a cobra....)				("Barrabas!...")
G-|------------------------------->		-----||
D-|------------------------------->		-----||
A-|---7-3-5-3-----7-3-5---------->		-----||
E-|-5---------3-5--------1-1-1-1->		-5~-||


"O Ying-Yang é um 69 da Xuxa com o Pelé...


Enviada por Sem inscrição
Nº de acordes: