Pitty

Pulsos

Pitty

3.013 exibições
Essa  1 parte

G|-------------------------------------
D|-------------------3333333333333333--  3x      
A|-7777777777777777--------------------
E|-------------------------------------

Quem um dia se atreveu 
  A olhar pro alto 
  Tinha um ceu mais não era azul
  No cansaço de tentar    

G|--------------------------------------------------
D|--------------------------------------------------       
A|-77777777-10-10-10-10-10-10-10-10-2222-3----------
E|-----------------------------------------5555555--
Se é coragem eu não sei

(Refrao)

G|-----------------------------------------
D|-----------------------------------------   
A|-3333333333333333------------------------
E|------------------------0---0-0----------
Tentar achar que não é assim tão mal  Exercita a paciência

G|-----------------------------------------
D|-----------------------------------77-99-  
A|-3333333333333333------------------------
E|-------------------0-0-0-0-0-0-0-0-------
Guarda os pulsos pro final      Saída de emergência

G|-----------------------------------------
D|-----------------------------------------   
A|-3333333333333333------------------------
E|------------------------0---0-0----------
Tentar achar que não é assim tão mal  Exercita a paciência

G|-----------------------------------------
D|-----------------------------------77-99-  
A|-3333333333333333------------------------
E|-------------------0-0-0-0-0-0-0-0-------

G|-----------------------------------------
D|-----------------------------------------   
A|-3333333333333333------------------------
E|------------------------0---0-0----------

2 parte

G|-------------------------------------
D|-------------------3333333333333333--  3x      
A|-7777777777777777--------------------
E|-------------------------------------

E um dia decidiu
  Quis terminar
  Só mais um gole e duas linhas horizontais
  Sem a menor pressa
  Calculadamente

G|--------------------------------------------------
D|--------------------------------------------------       
A|-77777777-10-10-10-10-10-10-10-10-2222-3----------
E|-----------------------------------------5555555--

G|-----------------------------------------
D|-----------------------------------------   
A|-3333333333333333------------------------
E|------------------------0---0-0----------
Tentar achar que não é assim tão mal  Exercita a paciência

G|-----------------------------------------
D|-----------------------------------77-99-  
A|-3333333333333333------------------------
E|-------------------0-0-0-0-0-0-0-0-------
Guarda os pulsos pro final      Saída de emergência

G|-----------------------------------------
D|-----------------------------------------   
A|-3333333333333333------------------------
E|------------------------0---0-0----------
Tentar achar que não é assim tão mal  Exercita a paciência

G|-----------------------------------------
D|-----------------------------------77-99-  
A|-3333333333333333------------------------
E|-------------------0-0-0-0-0-0-0-0-------
Guarda os pulsos pro final      Saída de emergência

no solo o baixo para

  ahAH ahAH ahAH ahah...

G|-----------------------------------------
D|-----------------------------------------   
A|-3333333333333333------------------------
E|------------------------0---0-0----------
Tentar achar que não é assim tão mal  Exercita a paciência

G|-----------------------------------------
D|-----------------------------------77-99-  
A|-3333333333333333------------------------
E|-------------------0-0-0-0-0-0-0-0-------
Guarda os pulsos pro final      Saída de emergência

G|-----------------------------------------
D|-----------------------------------------   
A|-3333333333333333------------------------
E|------------------------0---0-0----------
Tentar achar que não é assim tão mal  Exercita a paciência

G|-----------------------------------------
D|-----------------------------------77-99-  
A|-3333333333333333------------------------
E|-------------------0-0-0-0-0-0-0-0-------
Guarda os pulsos pro final      Saída de emergência

G|-------------------------------------
D|-------------------------------------  3x      
A|-3333333333333333-7777777777777777---
E|-------------------------------------

Saída de Emergência ah     Saída de emergência Ah
  Uow Ow ow ow ow                Ow ow ow ow
  uow ow ow ow ow                Ow ow ow ow


Enviada por Sem inscrição
Nº de acordes: