Pitty

Admirável Chip Novo

Pitty

2.076 exibições
--->Afinar a corda MI em RÉ


intro (durante o riff de guitarra)
             "pane no sistema..."
G-----------|-------------------|
D-----------|-------------------|
A-----------|-------------------|
D-0(30x)----|-0~~---------------|


TEMA
"Aonde estão meus olhos de..."                                       
G--------------------------------------------------------------------------|
D--------------------------------------------------------------------------|
A-88-88-7-777-444--555-0-555-555-----88-88-7-77-4444-555-0-3-555----5555---|
D--------------------------------------------------------------------------|

"Até achava que aqui..."
G----------------------------------------------------------------|
D----------------------------------------------------------------|
A-88-88-7-777-444--555-0-555-555-----88-88-7-77-4444-------------|
D-----------------------------------------------------0~---------|

pausa

REFRÃO
"Pense, fale, compre,..."  2x
G----------------------------|------\7(4X)------\7(4X)-------------------|
D----------------------------|-------------------------------------------|
A----------------------------|-------------------------------------------|
D-0(16x)-3(8x)-2(4x)-1(4x)---|-0(4X)-------0(4X)-------3(8x)-2(4x)-1(4x)-|

G----------------------------|
D----------------------------|
A----------------------------|
D-0(16x)-3(8x)-2(4x)-1(4x)---|



"...não senhor, sim senhor..."
                        3x
G-------------------------|----------------|
D-------------------------|----------------|
A-------------------------|----------------|
D-55--55--55--55----555---|--55--55--55----|


(instrumental)          2x
G-------------------------|
D-------------------------|
A-------------------------|
A-0(14x)-3-0(13x)-2-3-----|


Repete o TEMA 1x

REFRÃO 1X

"...não senhor, sim senhor..."
                        3x
G-------------------------|----------------|
D-------------------------|----------------|
A-------------------------|----------------|
D-55--55--55--55----555---|--55--55--55----|

acho q nao tem erros... :)

_______________________________________________________
Contribuição: Leonardo Mesquita(autoramas@hotmail.com)


Enviada por Sem inscrição
Nº de acordes: