Paul Wright

Youre Beautiful

Paul Wright

7 exibições
Chorus	In @ 0:36
G|-------------------------------------|
D|-------------------------------------|
A|--------------------3-3-333-3-3-333--|
E|--0-0-000--3-3-333-------------------|(x2)

G|----------------------------------------------------------|
D|----------------------------------------------------------|
A|--7--7-7----------3--3-3-3--3-3--7--7-7--5--5-5--3(fade)--|
E|----------3--3-3------------------------------------------|

Bridge
G|----------------------------------------------|
D|--000000000000--------------------------------|
A|---------------002233333333/1515151515151515--|
E|----------------------------------------------|

G|-------------------------------------|
D|--000000000000-----------------------|
A|---------------00223333333333333333--|
E|-------------------------------------|

G|----------------------------------------------------------------|
D|----------------------------------------------------------------|
A|-----------5-5-555--3-3-333--3-3-335--7-7-777--5-5-555-3(fade)--|
E|--0-0-000-------------------------------------------------------|

Order
Chorus (@ 0:36)
Chorus (@ 1:49)
Bridge


Enviada por Sem inscrição
Nº de acordes: