Oficina G3

Sempre Mais

Oficina G3

2.657 exibições
D   Em      F#m  G
Sempre mais, muito mais
SOLO
G---------------16-14\----18\-16-----------------------------------------------------------16---14--------
D-0-----11/-14/--------16---------19-16---14-12-14/-16-14-12------------16-----17------------------14/--15
A--12---------------------------------------------------------14-12-12/----12/---------12/----------------
E---------------------------------------------------------------------------------------------------------

G----------16---16-18-19-16h18-16-16h18-16-14-----16-14-------------------------------------14-14--16/----
D-12-17-19---19--------------------------------16-------14/16-12------14-16-17-16-14-----16-----------16--
A----------------------------------------------------------------14-17--------------17/-------------------
E---------------------------------------------------------------------------------------------------------

G-------------21---------------------------------------------14--14-------------18--14-----------14h16-14-
D-14----14-19----14p12----12-16--16p14-----14-19--------12/16-------14-12---12/--------14--12-14----------
A----17----------------14---------------16----------14--------------------14------------------------------
E---------------------------------------------------------------------------------------------------------

G--------------------------||---
D-14p12-----14-16-14-12----||14-
A------14------------------||---
E--------------------------||-0-
Em                G                A
Sua voz é como as muitas águas do mar,
                             G            A
Que me traz segurança pra continuar, buscando

D   Em       F#m
Sempre mais, muito mais...(4x)
       G    A       D                    
...eu vivo a Ti buscar     
       D   Em      F#m  G
Sempre mais, muito mais


Riff do baixo e violão       Riff do baixo no refrão
A|-0-2-3--2--0-|             G|-7-7h9p7-9bend----------|
E|-------------|


Enviada por Sem inscrição
Nº de acordes: