Oficina G3

Naves Imperiais

Oficina G3

2.318 exibições
G  |------------------|------------------|------------------|
D  |------------------|14-14h-16---------|16h-17-14---------|
A  |--14-17-14-16-17--|-------------14-17|---------17-14----|
E  |------------------|--------15-17-----|------------------|


G  |-----------14h-16-|------------------|------------------|
D  |------14h-16------|-16---------------|------------------|
A  |-14-17------------|-----------14-17--|---16h-17-14------|
E  |------------------|-----15-17--------|------------------|


G  |------------16----|----------14------|------------------|
D  |---14-14-16-------|-14-14-16----16-17|-------11-14-12-11|
A  |------------------|------------------|-12h-14-----------|
E  |------------------|------------------|------------------|


G  |------------------|
D  |-11---------------|
A  |---12-12-14-------|
E  |------------------|

 
Mary, eu te amo.   		

_______________________________________________________
Contribuição: Leonardo Melo. MMC(ludileo@terra.com.br)


Enviada por Sem inscrição
Nº de acordes: