O Rappa

Pescador De Ilusões

O Rappa

3.757 exibições
O inicio é sem o baixo.

Se meus joelhos... ..., mais coloridos

Valeus a pena...
G---------------------------------------------
D---------------------------------------------
A--4-4----4---1-1----1----------3----------3--
E-------4----------1----4-4-4-6----4-4-4-6----

Se eu ousar... (mais suave)
G---------------------------------------------
D---------------------------------------------
A--4-4----4---1-1----1----------3----------3--
E-------4----------1----4-4-4-6----4-4-4-6----

Valeus a pena...
G---------------------------------------------
D---------------------------------------------
A--4-4----4---1-1----1----------3----------3--
E-------4----------1----4-4-4-6----4-4-4-6----

Se eu ousar... (sem o baixo)

sem final, sem final
G---------------------------------------------
D---------------------------------------------
A--4-4----4---1-1----1----------3----------3--
E-------4----------1----4-4-4-6----4-4-4-6----

Valeus a pena...
G---------------------------------------------
D---------------------------------------------
A--4-4----4---1-1----1----------3----------3--
E-------4----------1----4-4-4-6----4-4-4-6----

É importante ouvir a musica e suavizar / fortalecer em cada parte da musica.

Abraço

Drausio Henrique Chiarotti
drausiohc@pop.com.br
Bebedouro/SP


Enviada por Sem inscrição
Nº de acordes: