Nx Zero

Razões E Emoções

Nx Zero

8.600 exibições
(Intro)
G|------------------------------------------------------------------------------------------------|
D|------------------------------------------------------------------------------------------------|
A|6666666666666666-5555555555555555-3333333333333333----------------------------------------------|
E|---------------------------------------------------6x66x66x66x66x6------------------------------|

"Dizer, o que eu posso dizer" 
G|------------------------------------------------------------------------------------------------|
D|------------------------------------------------------------------------------------------------|
A|6666666666666666-5555555555555555-3333333333333333--------------13-13-13-(treze)----------------|
E|---------------------------------------------------666666666666---------------------------------|

"É que às vezes acho que não sou o melhor pra você"
G|------------------------------------------------------------------------------------------------|
D|------------------------------------------------------------------------------------------------|
A|6666666666666666-5555555555555555-3333333333333333----------------------------------------------|
E|---------------------------------------------------6xx6xx6xx6xx6x6------------------------------|

"Só quero que saiba" 
G|------------------------------------------------------------------------------------------------|
D|------------------------------------------------------------------------------------------------|
A|------------------------------------------------------------------------------------------------|
E|-1-0-1-0-1-0-1-0-1-0-1-0-1-0-1-3--4444444444444444----------------------------------------------|

(Refrão)
G|------------------------------------------------------------------------------------------------|
D|------------------------------------------------------------------------------------------------|
A|-33333333----------66666666----------------33333333----------66666666---------------------------|
E|----------44444444----------66666666/7777-----------44444444----------66666666------------------|

(Intro)
G|------------------------------------------------------------------------------------------------|
D|------------------------------------------------------------------------------------------------|
A|6666666666666666-5555555555555555-3333333333333333----------------------------------------------|
E|---------------------------------------------------6x66x66x66x66x6--------------------------------|

"Sentir, o que posso sentir."
G|------------------------------------------------------------------------------------------------|
D|------------------------------------------------------------------------------------------------|
A|6666666666666666-5555555555555555-3333333333333333--------------13-13-13-(treze)----------------|
E|---------------------------------------------------666666666666---------------------------------|

"É que às vezes acho que não sou o melhor pra você"
G|------------------------------------------------------------------------------------------------|
D|------------------------------------------------------------------------------------------------|
A|6666666666666666-5555555555555555-3333333333333333----------------------------------------------|
E|---------------------------------------------------6xx6xx6xx6xx6x6------------------------------|

"Só quero que saiba" 
G|------------------------------------------------------------------------------------------------|
D|------------------------------------------------------------------------------------------------|
A|------------------------------------------------------------------------------------------------|
E|-1-0-1-0-1-0-1-0-1-0-1-0-1-0-1-3--4444444444444444----------------------------------------------|

"Entre razões e emoções a saída"  
G|------------------------------------------------------------------------------------------------|
D|------------------------------------------------------------------------------------------------|
A|-3-------------6-------------3-------------6----------------------------------------------------|
E|--------4-------------6-------------4-------------6------44444444--4--444444444-4---------------|

"Durante o solo"
G|------------------------------------------------------------------------------------------------|
D|------------------------------------------------------------------------------------------------|
A|-33333333----------66666666---------------33333333-----------66666666---------------------------|
E|----------44444444----------66666666/7777-----------44444444----------66666666/77777------------|

(Refrão 2x)
G|------------------------------------------------------------------------------------------------|
D|------------------------------------------------------------------------------------------------|
A|-33333333----------66666666----------------33333333----------66666666---------------------------|
E|----------44444444----------66666666/7777-----------44444444----------66666666------------------|

"posso esperar"
G|------------------------------------------------------------------------------------------------|
D|------------------------------------------------------------------------------------------------|
A|------------------------------------------------------------------------------------------------|
E|-4444444444444444--0--4444444444444444--0--4444444444444444--0--4444444444444444----------------|

(Final)
G|-------------------|
D|-------------------|
A|-6-----------------| (Deixe soar) 
E|-------------------|


Enviada por Sem inscrição
Nº de acordes: