Natiruts

Andei Só

Natiruts

2.261 exibições
Introdução

2x                  2x
G------------------|-6-4-----------------------|
D------------2-----|-----6-5-4-4-4----6--------|
A-----2--4-4-----2-|----------------7----------|
E-4-4----------4---|---------------------------|
2x                  
G------------------|-6-4------------------6-4--------------4-|
D------------2-----|-----6-5-4-4-4----6-------6-4-4-4-4------|
A-----2--4-4-----2-|----------------7--------------------7---|
E-4-4----------4---|-----------------------------------------|

Base
G-----------------------------------------------|
D-----------------------------------------------|
A-4-2-4-------------------2-2-2-----2-2---------|
E--------2-4-2-4--2-0-2---------4-4-------------|

G-----------------------------------------------|
D-----------------------------------------------|
A-4-2-4--------------------2-2-2-----2-2--------|
E--------4-5-4-5--0-2-0-2--------4-4------------|

Refrão
G-----------------------------------------------|
D-----------------------------------------------|
A-4-4-4--4-----------------------2-2-2-----2-2--|
E-----------4-4-4--4--0-2-2-2-2--------4-4------|
2x
G-----------------------------------------------|
D-----------------------------------------------|
A-4-2-4--------------------2-2-2-----2-2--------|
E--------2-4-2-4--0-2-0-2--------4-4------------|

G-----------------------------------------------|
D-----------------------------------------------|
A-4-4-4--4------------------------2-2-----------|
E-----------4-4-4--4--2-2-2--2------------------|



Enviada por Sem inscrição
Nº de acordes: