Metallica

Nothing Else Matters

Metallica

1.221 exibições
Bass Fig1

|----------------------------------------|
|----------------------------------------|
|-----------7--------5--------3----------|
|--0-------------------------------3--2--|


Bass Fig2     	
|----------------------------------------------------|
|----------------------------------------------------|
|-----------2-------------7---------------7\---------|
|--3-----------------0--------0--0--0--0-------3--2--|



Bass Fig3
|----------------------------------|
|----------------------------------|
|-----------2-----------------7----|
|--3-----------------0-------------|



Bass Fig4
|----------------------------------|
|----------------------------------|
|--3------0------5--5--5--5--5--5--|
|----------------------------------|



Bass Fig5
|----------------------------------|
|----------------------------------|
|-----------7----------------------|
|--0-----------------0-------3--2--|


Bass Fig6
|-------------------------------------------------|
|-------------------------------------------------|
|-----7---7-7-----7---7-7----7--7-7----7----------|
|--0-----------0-----------0---------0-----7-\-5--|

Bass Fig7
|----------------------------------------------|
|----------------------------------------------|
|--------------------------5-\-7---7-7--7-\-8--|
|-----5-5-----5-\-8---8-8----------------------|

|----------------------------------|
|----------------------------------|
|-------7---------------7\---------|
|--0--------0--0--0--0-------3--2--|

Bass Fig8
|------------------------------------------------------|
|--7------------------------------------7-------5------|
|------7-----------------------5-\-7--------5-------7--|
|----------5----5--7--8---8-8--------------------------|

|-----------------------------|
|-----------------------------|
|------7--7-------------------|
|--0------------0-------3--2--|

Bass Fig9
|-------------------------------------------|
|-------------------------------------------|
|-----------7-------------------------------|
|--0-----------------0-0-0-0-0-0-0-0-0-0-0-0|

Bass Fig10
|-------------------------------------------|
|-------------------------------------------|
|------------7------7--5------5--3----------|
|--0------0---------------------------3--2--|

Bass Fig11
|----------------------------|
|----------------------------|
|-----------2----------------|
|--3-----3---------0--0------|


How it's played:

Intro: Guitar only

Bass Fig1 x 3
Bass Fig2 x 1
Bass Fig1 x 3
Bass Fig2 x 1
Bass Fig1 x 3
Bass Fig3 x 1
Bass Fig4 x 3
Bass Fig5 x 1
Bass Fig1 x 3
Bass Fig3 x 1
Bass Fig4 x 3
Bass Fig5 x 1
Bass Fig6 x 1
Bass Fig7 x 1
Bass Fig6 x 1
Bass Fig8 x 1
Bass Fig1 x 3
Bass Fig2 x 1
Bass Fig1 x 3
Bass Fig3 x 1
Bass Fig4 x 6
Bass Fig9 x 1
Bass Fig10 x 3
Bass Fig11 x 1

Outro: Guitar only


Enviada por Sem inscrição
Nº de acordes: