Los Hermanos

Anna Julia

Los Hermanos

5.516 exibições
A introdução e a primeira frase começa só com
 a guitarra, o baixo entra junto com a bateria

Verso:
"Quem te ver passar assim por mim, não sabe o que é
G:-------------------------------------------|------
D:--2-4-2-4-2--------------------------------|--3X--
A:------------4-7-4-7-4------4---------------|------
E:----------------------4--4---7-4--5-5-7-7--|------
sofrer. Ter que ver você assim, sempre tão linda..."

Pré-Refrão:
G:---------------------------------------------------------------|
D:---------------------------------------------------------------|
A:--4-4-7-4-4-5-4-4-4---------------------------2-2-2-2-2-2-2-2--|
E:--------------------4-4-7-4-4-5-4-4-4-5-5-5-5------------------|
"nada, um alguém sem carinho, eu me sinto sozinho, eu me afogo em solidão."

Refrão 2X:
G:------------2-2-2-2-2------------|
D:--2-2-2-2-2----------------------|
A:----------------------2-2-2-2-2--|
E:---------------------------------|
"O Anna Júlia-aaaaaaaaa-aaaaaaaaa"

Repetir Verso

Repetir Pré-Refrão

Repetir Refrão

Solo:
G:------------2-2-2-2-0-2----------------------|------|
D:--2-2-2-2-4----------------------------------|--2X--|
A:------------------------2-2-2-2-2-4-2-4-2-2--|------|
E:---------------------------------------------|------|

G:----------------------------------------------------------------------------------------------|
D:----------------------------------------------------------------------------------------------|
A:--4-4-4-4-4---------------------7-7-7-7-7--2-4-2-4-4-4-4-4------------------------------------|
E:------------4-4-4-4-4-5-5-5-5-5----------------------------4-4-4-4-4-5-5-5-5-5-7-7-7-7-7-7-7-7|

Pós-solo:
G:--------------------------------------------|
D:--------------------------------------------|
A:----4--------------7----4--------------7----|
E:---------4----5--------------4----5---------|
 "Sei que você já não quer o meu amor
  Sei que você já não gosta de mim"

G:---------------------------------------------------------|
D:---------------------------------------------------------|
A:---4-4-4--------------------------------------7-7-7-7-7--|
E:----------------------4-4-4-------5-5-5-5-5-5------------|
 "Sei     que eu não sou     quem você sempre sonhou"

G:---------------------------------------------------------------------|
D:---------------------------------------------------------------------|
A:------4-4-4-41------------------------------------------------------|
E:------------------------4-4-4-41-------5-5-5-5-5-5-5-7-7-7-7-7-7----|
"Mas vou       reconquistar       o seu amor todo pra mim"


Repete Refrão 4X


Enviada por Sem inscrição
Nº de acordes: