intro 


G-------------------------------------------------------------------------|
D-------------------------------------------------------------------------|
A----5-5-5---0---0-0-0---5-5-5---0---0-0-0----5-5-5--7----7--5-5-5---0—0-0|
E-------------------------------------------------------------------------|

E mesmo sem te ver, acho até que estou indo bem...

G-------------------------------------------------------------------------|
D-------------------------------------------------------------------------|
A----5-5-5---0---0-0-0---5-5-5---0---0-0-0----5-5-5--7----7--5-5-5---0—0-0|
E-------------------------------------------------------------------------|

Quando quero...

G-------------------------------------------------------------------------|
D----------------------------------------5-5------------------------------|
A----5-5---5-7-5-4-4---4-5-4-2-2—--2-4-5----------------------------------|
E-------------------------------------------------------------------------|

Desenho toda calçada...       ...eu rabisco o sol que a chuva apagou..

G-------------------------------------------------------------------------|
D-------------------------------------------------------------------------|
A---2-5-7-0-----2-5-7------------2--22----5-55---7-77-7-77----------------|
E---------------------2-2-2---2-------------------------------------------|


Repete sempre essas mesmas seqüências no resto da música
 


Enviada por Sem inscrição
Nº de acordes: