Legião Urbana

Andrea Doria

Legião Urbana

817 exibições
Essa tablatura foi tirada da versão ao vivo, mas a original é bem parecida.


intro 


G-------------------------------------------------------------------------|
D-------------------------------------------------------------------------|
A----5---7---0-----5-5-5-5-5-5-5-5---7-7-7-7---0-0-0-0--1-1-1-1-1-1-1-1-1-|
E-------------------------------------------------------------------------|

G-------------------------------------------------------------------------|
D-------------------------------------------------------------------------|
A----0-0-0-0------------------------------0-0-0-0--5-5-3-1-1-1-1-1-1-1-3--|
E-------------1-1-1-1---3-3-3-3-3-3-3-3-3---------------------------------|

As vezes parecia que de tanto acreditar em tudo que achávamos tão certo...

G-------------------------------------------------------------------------|
D-------------------------------------------------------------------------|
A----5-5-5-5-5-5-5-5---7-7-7-7---0-0-0-0----------------------------------|
E-------------------------------------------------------------------------|

E diamantes de pedaços de vidro...

G-------------------------------------------------------------------------|
D-------------------------------------------------------------------------|
A-1-1-1-1--0-0-0-0-----------3-3-3-3--------------------------------------|
E-------------------3-3-3-3-----------------------------------------------|

Mas percebo agora,que o teu sorriso vem diferente, quase parecendo te ferir

G-------------------------------------------------------------------------|
D-------------------------------------------------------------------------|
A------------------0-0-0-0--5-5-5-5-3-3-1-1-0-0-----------3-3-3-3---------|
E--1-1-1-1-1-1-1-1--------------------------------3-3-3-3-----------------|

Não queria te ver assim, quero a tua força como era antes....

G-------------------------------------------------------------------------|
D-------------------------------------------------------------------------|
A----8---8---8------5---5---5----1---1---1-----3---3---3------------------|
E------8---8---8------5---5---5----1---1---1-----3---3---3----------------|

No restante da música repete as mesmas seqüências. Tem que ouvir a música pra
pegar o ritmo.
 
 


Enviada por Sem inscrição
Nº de acordes: