(introdução) (E7) 
G| ----------------------------------------------------------|
D|-----------------------------------------------------------|
A|--7-7-7/7------------7-7-7/7---------------------------|
E|-----------0-0-0-0-------------0-0-0-0-----------------| 

G|-----------------------------------------------------------|
D|-----------------------------------------------------------|
A|-6/7-7-0-7-6/7-7-0-7-0-7-----------------------------|2x 
E|-----------------------------------------------------------| 

 Verso: durante as notas (E7, C). 
G|-----------------------------------------------------------|
D|-----------------------------------------------------------|
A|6/7-7-0-7-6/7-7-0-7-0-7-3-3-3-3-0-3-5-7----------|4X 
E|-----------------------------------------------------------|

ESTREBILHO (C7, Am, Bm, Cm,G,F, D).
G|--------------------------------------------------------------------------------------------------------|
D|-------------------------------------------------------------------------7-5-7-5-5-----7-5-7-5-5---|
A|3-3-3-3-0-0-0-0-2-2-2-5-5-3-3---5-3-5-3-3-----3-1-3-1-1---5--------------5----------------|
E|-------------------------------------3--------------1--------------------------------------------------|

Variação em (E7)
G|----------------------------------------------------------|
D|----------------------------------------------------------|
A|6/7-7-0-7-6/7-0-7-0-7--------------------------------|2X
E|-----------------------------------------------------------|
REPETE O VERSO E ESTREBILHO
REPETE A INTRODUÇÃO
SOLO:
G|--------------------------------------------------------------------|
D|--------------------------------------------------------------------|
A|7-7-5-3-5-7-7-9/10-9-------------------------------------------| -
E|---------------------------------------------------------------------|
REPETE O ESTREBILHO
INTERCULE
G----------------------------------------------------------------------|
D----------------------------------------------------------------------|
A7/12-12-127-7---------------7/12-12/1013/7------------------|
E-------------------0-0-0-0-0-0---------------------0-0-0-0-0-0---|

G|-------------------------------------------------------------|
D|-------------------------------------------------------------|
A|-------------------------------------------------------------|5X
E|-0-0-0-0-0-0-0-0-0-0-0----------0-0-0-0-0-0-0-0-0--|
 
 


Enviada por Sem inscrição
Nº de acordes: