Legião Urbana

1965 (Duas Tribos)

Legião Urbana

793 exibições
intro 
Vou passar, quero ver, volta aqui, vem você

G-------------------------------------------|
D-------------------------------------------|
A--------2-3-6----3-2-0-00---2---6--66-66---|
E---3-3--------------------3----------------|

Não se esqueça,        temos sorte   e  agora é  aqui

G----------------------------------------------------------------------|
D----------------------------------------------------------------------|
A---3-33-3--2-22-2-----3-33-3--2-22-2--0-00-0---0-3--6---3-h-6--3-h-6--|
E----------------------------------------------------------------------|


Quando querem transformar...

G----------------------------------|
D----------------------------------|
A------------------6-6-6-6-6-6-----|
E---3-3-3-3-3-3--------------------|

Mataram o menino...

G----------------------------------|
D----------------------------------|
A----------------------------------|
E---3-3-3-3-3-3-3-3-3-3-3-3-3-3-3-3|


O Brasil é o pais do futuro...

G-------------------------------------------|
D-------------------------------------------|
A--------2-3-6----3-2-0-00---2---6--66-66---|
E---3-3--------------------3----------------|

Em toda e qualquer situação eu quero tudo pra cima..

G------------------------------------------------------|
D------------------------------------------------------|
A---3-33-3--2-22-2-----3-33-3--2-22-2--0-00-0—6-66-6---|
E------------------------------------------------------|

pra cima..

G-----------------|
D-----------------|
A---0-00-0—6-66-6-|
E-----------------|


Parte final

G--------------------|
D--------------------|
A—3—-3-2---2-0-------|
E--------------3-----|      


Enviada por Sem inscrição
Nº de acordes: