Sem imagem

Alien 8

Lagwagon

50 exibições
G]-------------------------------------------]
D]-------------------------------------------]
A]-------5>-7>----5-5-5-------2-2-2----------]
E]-5>-7>-------5>-------2-2-2-------0-0-0-5>-]

toque isso no solo
G]-----------------------------------------------------------------------
D]-----------------------------------------------------------------------
A]-------5>----------5>-7>----5-5-5-------2---2-2-5-5-5-------2-2------2-
E]-5>-7>----5>-5>-7>-------5>-------2-2-2---------------2-2-2------------

------------------------]
------------------------]
-5-5-----2-2------------]
-----2-2-----0-0-5----5-]

Do you ever stop
G]-9-11---11-14-16--16-9-]
D]-7--9----9-12-14--14-7-]
A]-----------------------]
E]-----------------------]

G]------------------------------------------------------------------------
D]------------------------------------------------------------------------
A]-------5>-7>----5-5-5-------2-2-2-5-5-5-------2-2-2-5-5-5-------2-2-2---
E]-5>-7>-------5>-------2-2-2-------------2-2-2-------------2-2-2---------

-------------------]
-------------------]
----------4>-------]
-0-0-0-5>----5---5-]


Enviada por Sem inscrição
Nº de acordes: