Korn

Faget

Korn

96 exibições
CHORUS  (slap)
G||--------------------------------------------------------------|
D||-----------------------------------------------------x---x----|
A||-----------------------------------------------------x---x----|
E||---------------------6-6-6-6-------------------------x-x-x-x--|
A||--0----0--0-0--0-0-0----------0----0--0-0---x-x-x-x--x-x-x-x--|
                                                      1 + 2 +

VERSE
G||-------------------------------|
D||-------------------------------|
A||----------------------1-1-1-1--|
E||-------------------------------|
A||-0--0-0-0--0-0--0-0-0----------|

BREAKDOWN INTRO  --  no bass

BREAKDOWN  (slap)                 

G||------------------------------|-----------------------|
D||------------------------------|-----------------------|
A||------------------------------|-----------------------|
E||--------5----------6-----6----|-----------------------|
A||--0-0-0------0-0-0---0-0---0--|--8---8---7-8---8---7--|



Enviada por Sem inscrição
Nº de acordes: