Korn

Clown

Korn

134 exibições
INTRO:

G|---------------------|
D|---------------------|
A|---------------------|    Play
E|---------------------|    twice
A|--0-0-0-0---0-0-0-0--|

A|------------------------------------------| Play
E|------------------------------------------| six
A|--3h4--4--2h3--3--3h4--4--2h3--3--3h4--4--| times

A|------------------------------|  Play
E|------------------------------|  four
A|--3h4--2h3--3h4--2h3--3h4--2--|  times


VERSE:

A|------------------------------------------|
E|------------------------------------------|
A|--3h4--4--2h3--3--3h4--4--2h3--3--3h4--2--|


CHORUS:

A|------------------------------------------|
E|------------------------------------------|
A|--0--0--0--0---0--0--4\3--3--3\2--2--2\1--|


BRIDGE:

A|---------------------|
E|---------------------|
A|--0--0--0---0--0--0--|



Enviada por Sem inscrição
Nº de acordes: