Korn

Blind

Korn

285 exibições
INTRO

F|----------------------|
C|-----9----------------|
G|-------9--5-----------|
D|-7-----------------7--|
A|----------------------|

F|------------------------------|
C|------------------------------|
G|------------------------------|
D|------------------------------|
A|--------(5)--------(5)--------|

CHORUS
F|----------------------------|
C|*--------------------------*|
G|----------------------------|
D|*--------------------------*|
A|--0-2--0-3--0-2--0-3--6666--|


VERSE
F|------------------------------------|
C|*----------------------------------*|
G|------------------------------------|
D|*----------------------------------*|
A|--5-5-----5-5--5-5-6-6-----6-6--6-6-|


PRE-CHORUS
F|-------------------------------------------------------------|
C|*-----------------------------------------------------------*|
G|-------------------------------------------------------------|
D|*-----------------------------------------------------------*|
A|-5-5--5555-0-5-6-5--5555-0-5-6-5--5555-0-5-6-5--5555-0-6-4---|


OUTRO
F|-------------------------|
C|*----11-------12--------*|
G|-9---- 9--10---10--------|
D|*-----------------------*|
A|-------------------------|



Enviada por Sem inscrição
Nº de acordes: