Korn

Alone I Break

Korn

213 exibições
Intro
G------------------------
D------------------------
A----4-4-|-----4-4----4-4{18VEZES}
E-44-----|-4-4----4-4----

Refrao
G--------------------
D--------------------
E--------------|-2-2-2-2-2-2-2-2|
A-4-4-4-4-4-4-4|----------------|-2-2-2-2-2-2-2|0-0-0-0-0-0-0

Baixo SolO
B-4-4-4-4-4-4-4|-2-2-2-2-2-2-2|0-0-0-0-0-0-0-0|-2-2-2-2--2-2-2-



Enviada por Sem inscrição
Nº de acordes: