Korn

A.D.I.D.A.S

Korn

261 exibições
VERSO:
    
    G|-----------------------|
    D|-----------------------|
    A|--0--X--X--0--0--X--X--|
    E|-----------------------|
    A|-----------------------|
    
    
    PRE-CHORUS:
    
    A|-----------------------------|
    E|--0--------------------------|
    A|-----1h2--2h3----1--0--1--0--|
    
    
    CHORUS:
    
    E|----------------------------------------
    A|--X--X--X--X--X--X--X--X--X--X--X--X--X...
    
    	
    A|----------------|
    E|----------------|
    A|-----0-----1----|
    
    
    BRIDGE
    
    E|--------------------------------------|
    A|--1--0--1--0----1--0--1--0--4p3--3p2--|
    



Enviada por Sem inscrição
Nº de acordes: