Jota Quest

Fácil

Jota Quest

4.099 exibições
Entrada:
G--------
D---5----
A-----7-
E-3------

Intro: x2
  G               D/F#            F                C
G------------------------------------------------------------------
D-----5-------5-------4-------4-------3-------3--------------------
A---5---5---5-------5---5---5-------3---3---3------3-3--3--3h5-3---
E-3-------3-------2-------2-------1-------1----------------------5-

Verso:
  G        D/F#     C        Bm       C        Bm        Am9
G------------------------------------------------------|----------------|
D------------4-4---------------------------------------|-----7-7H9-7----|
A-------------------3--3-3---2--2-2---3--3-3---2--2-2--|-0--7-----------|
E-3--3-3---2-----2-------------------------------------|----------------|

na Segunda vez, faz
G-----------|
D-----------|
A--7-5------|
E------7-5--|

"...uma dia feliz..."
  Em         Bm         C         G            Em         Bm        C
|----------------2-------------------------------------------2------------
|-----------------2-------------------------------------------4-----------
|------------2-----2--2-3--3-3--5-------------------------2----2--2-3--3-3
|-0--0-0-2-3----------------------3---3--3-3-2-0--0-0-2-3-----------------
Entra p/ refrão
  Am9
-------------------|
-------------------|
--5--------2-3-5---|
----2-3-5----------|
Refrão
G          D/F#       F          C
|----------------------------------------------------|
|-----5----------4----------3------------------------|
|---5---5------5---5------3---3----3-3--3--3H5-3-----|
|-3-------3--2-------2--1-------1----------------5---|


Enviada por Sem inscrição
Nº de acordes: