James Blunt

Tears And Rain

James Blunt

214 exibições
Tabbed By : BreAdOwn396 (from the guitar pro tab by blacklightalex)
e-mail: *

Tuning:
verse 2 x2
G|-------------------------------------------------------------------------|
D|-------------------------------------------------------------------------|
A|----------2-222---------------------------5-555-5-555--------------------|
E|----3-333---------0-000-0-000-8-888-3-333--------------------------------|

chorus
G|-------------------------------------------------------------------------|
D|-------------------------------------------------------------------------|
A|-----------555555555-77777777-33333333----------22222222-77777777-3333333|
E|-333333333-----------------------------33333333--------------------------|

G|-------------------------------------------------------------------------|
D|-------------------------------------------------------------------------|
A|-----------555555555-77777777-33333333----------22222222-77777777-3333333|
E|-333333333-----------------------------33333333--------------------------|

G|-------------------------------------------------------------------------|
D|-------------------------------------------------------------------------|
A|-----------55555555---------55555555-------------------------------------|
E|---33333333---------33333333---------------------------------------------|

Interlude
G|-------------------------------------------------------------------------|
D|-------------------------------------------------------------------------|
A|-55555555---------77777777-33333333---------222222222-77777777-----------|
E|----------33333333------------------33333333-----------------------------|

G|-------------------------------------------------------------------------|
D|-------------------------------------------------------------------------|
A|---33333333----------55555555-77777777-33333333----------22222222--------|
E|------------33333333----------------------------33333333-----------------|

G|-------------------------------------------------------------------------|
D|-------------------------------------------------------------------------|
A|---77777777-33333333----------5~-----------------------------------------|
E|---------------------33333333-----3~-------------------------------------|


| /  slide up
| \  slide down
| h  hammer-on
| p  pull-off
| ~  vibrato
| +  harmonic
| x  Mute note
===============================================================================


Enviada por Sem inscrição
Nº de acordes: