Guns N`Roses

Knockin' On Heaven's Door

Guns N`Roses

3.936 exibições
Knocking Heaven's Door

E]-3-3---5------------]  
A]----5-5-3-3---------]    2x
D]-----------2-2-2-3-4]      
G]--------------------] 

Mama take this Badge from me
E]-3-3---5-----0]
A]----5-5-0-0-0-]
D]--------------]
G]--------------]

I can't use than anymore
E]-3-3---5------------] 
A]----5-5-3-3---------]
D]-----------2-2-2-3-4]      
G]--------------------]

It's getting dark too dark to see
E]-3-3---5-----0]
A]----5-5-0-0-0-]
D]--------------]
G]--------------]

Feels like I'm Knockin' on heaven's door
E]-3-3---5------------]  
A]----5-5-3-3---------]
D]-----------2-2-2-3-4]   
G]--------------------]

Knock-knock-knockin' on Heaven's door 
E]-3-3---5------------] 
A]----5-5-3-3---------]
D]-----------2-2-2-3-4]   <----REFRÃO
G]--------------------]

Mama put my guns in the ground
E]-3-3---5-----0]
A]----5-5-0-0-0-]
D]--------------]
G]--------------]

I can't shoot then anymore
E]-3-3---5------------] 
A]----5-5-3-3---------]
D]-----------2-2-2-3-4]      
G]--------------------]

That cold black cloud is comim' down
E]-3-3---5-----0]
A]----5-5-0-0-0-]
D]--------------]
G]--------------]
Feels like I'm Knockin' on heaven's door
E]-3-3---5------------]  
A]----5-5-3-3---------] 
D]-----------2-2-2-3-4]   
G]--------------------]

RFRÃO

E]-3-3---5------------] 
A]----5-5-3-3---------]
D]-----------2-2-2-3-4]      
G]--------------------](até o final do solo)
 
REFRÃO


Enviada por Sem inscrição
Nº de acordes: