intro/verse
F|-------------------------------------------------|
C|-------------------------------------------------|
G|-------------------------------------------------|
C|-00----------------------------------------------|

pre chorus
F|-------------------------------------------------|
C|-------------------------------------------------|
G|-------------------------------------------------|
C|--00-xx-xx--4p3-0h4----87-07-78------------------|

chorus (weird rythm but its all opend so figure it out)
F|-------------------------------------------------|
C|-------------------------------------------------|
G|-------------------------------------------------|
C|-----000-----------------------------------------|

intro/verse
F|-------------------------------------------------|
C|-------------------------------------------------|
G|-------------------------------------------------|
C|-00----------------------------------------------|

pre chorus
F|-------------------------------------------------|
C|-------------------------------------------------|
G|-------------------------------------------------|
C|--00-xx-xx--4p3-0h4----87-07-78------------------|

chorus (weird rythm but its all opend so figure it out)
F|-------------------------------------------------|
C|-------------------------------------------------|
G|-------------------------------------------------|
C|-----000-----------------------------------------|

intro/verse
F|-------------------------------------------------|
C|-------------------------------------------------|
G|-------------------------------------------------|
C|-00----------------------------------------------|

bridge
F|-------------------------------------------------|
C|-------------------------------------------------|
G|-------------------------------------------------|
C|----0~---7~----8~--------------------------------|

F|-------------------------------------------------|
C|-------------------------------------------------|
G|-------------------------------------------------|
C|---0-7-8--0-7-8-0------0-7-8--0-7-8-0------------|

intro/verse
F|-------------------------------------------------|
C|-------------------------------------------------|
G|-------------------------------------------------|
C|-00----------------------------------------------|

pre chorus
F|-------------------------------------------------|
C|-------------------------------------------------|
G|-------------------------------------------------|
C|--00-xx-xx--4p3-0h4----87-07-78------------------|


Enviada por Sem inscrição
Nº de acordes: