Bass starts at 0:22, Intro

Oh I was born ...

E |-------------------------------------------------------|
B |-------------------------------------------------------|
F#|--0--3----------3--------------------------------------|
B |-----------0------------0------------------------------|

E |-------------------------------------------------------|
B |-------------------------------------------------------|
F#|--0--3--5----3-------3---------------------------------|
B |-----------------0------0------------------------------|






Chorus: Bad company, I can't deny ...

E |-------------------------------------------------------|
B |-------------------------------------------------------|
F#|--5--5--555----3--3--333----------5-------5-------5----|
B |-----------------------------0-00----0-00----0-00------|

E |-------------------------------------------------------|
B |-------------------------------------------------------|
F#|--3--3--333----5--5--555----------7-----5-----3-----2--|
B |-----------------------------0-00----0-----0-----0-----|

E |-------------------------------------------------------|
B |-------------------------------------------------------|
F#|-------7-----5-----3-----------------------------------|
B |----00----0-----0--------------------------------------|






Verse 1: Rebel souls ...

E |-------------------------------------------------------|
B |-------------------------------------------------------|
F#|--0----3---------------0-3------3-------3--------------|
B |------------0--------------0--------0-------0----------|

E |-------------------------------------------------------|
B |-------------------------------------------------------|
F#|--0-3------3--------------0-3------3-------3-----------|
B |------0--------0--------------0--------0-------0-------|






Chorus: Bad company, I can't deny ...

E |-------------------------------------------------------|
B |-------------------------------------------------------|
F#|--5--5--555----3--3--333----------5-------5-------5----|
B |-----------------------------0-00----0-00----0-00------|

E |-------------------------------------------------------|
B |-------------------------------------------------------|
F#|--3--3--333----5--5--555-------------------------------|
B |-------------------------------------------------------|

E |-------------------------------------------------------|
B |-------------------------------------------------------|
F#|-------7-----5-----3-----2-----------------------------|  X4
B |--0-00----0-----0-----0--------------------------------|






Bridge: Eye for an eye ...

E |-------------------------------------------------------|
B |-------------------------------------------------------|
F#|--3--3-3--------------0--0-0----5--5-5-----------------|  X2
B |------------0--0-0-------------------------------------|






Solo

E |-------------------------------------------------------|
B |-------------------------------------------------------|
F#|--5-5-5-555---5-5-5-555-----0-0-0-000---0-0-0-000------|  X3
B |-------------------------------------------------------|

E |-------------------------------------------------------|
B |-------------------------------------------------------|
F#|--5-5-5-555---5-5-5-555-----0--------------------------|
B |-------------------------------------------------------|






Chorus: Bad company, I can't deny ...

E |-------------------------------------------------------|
B |-------------------------------------------------------|
F#|--5--5--555----3--3--333------------5-------5-------5--|
B |-------------------------------0-00----0-00----0-00----|

E |-------------------------------------------------------|
B |-------------------------------------------------------|
F#|--3--3--333----5--5--555----------7-----5-----3-----2--|
B |-----------------------------0-00----0-----0-----0-----|

E |-------------------------------------------------------|
B |-------------------------------------------------------|
F#|--5--5--555----3--3--333------------5-------5-------5--|
B |-------------------------------0-00----0-00----0-00----|


Ending of last chorus

E |-------------------------------------------------------|
B |-------------------------------------------------------|
F#|--3--3--333----5--5--555-------------------------------|
B |-------------------------------------------------------|

E |-------------------------------------------------------|
B |-------------------------------------------------------|
F#|--3--3-3--------------0--0-0----5--5-5-----------------|
B |------------0--0-0-------------------------------------|

E |-------------------------------------------------------|
B |-------------------------------------------------------|
F#|--3--3-3--------------0--0-0---------------------------|
B |------------0--0-0-------------------------------------|


Enviada por Sem inscrição
Nº de acordes: