Emery

Walls

Emery

78 exibições
ok the tabs i found were 5-string so im going to help out all you guys who use a
normal 4-string not that 5-strings arn't kool ofcourse


listan for the guitar sturming

*are you listen (sweetist scream intro ever)*

g----------------------------------------|
d----------------------------------------|
a----------------------------------------| x2
d---0000-0-00-0000-000-7777-777-3333-333-|

*my hands seem to decieve me*

g--------------------------------------|
d--------------------------------------|
a--------------------------------------| x2
d---0~~~-000-77-7-77-7-77-33-3-33-3-33-|

piano part:

g-----------------------|
d-----------------------|
a-----22222-2-----------|
d---0----------7777-777-|

*somtimes*

g---------------------------------|
d---------------------------------|
a---------22-22-22-22-------------|
d---0~--0-------------77-77-77-77-|

*your eyes*

g------------------|
d------------------|
a------------------|
d---0~-7~-3~-00000-|

*these fights*

g---------------------|
d---------------------|
a---------------------|
d---77--33-00-77-7--7-|

pre-verse

g----------------------------------------------|
d----------------------------------------------|
a----------------------------------------------|
d---0~~~-00-0~~~-000-77-7-77-7-77-33-3-33-3-33-|

*is this your lesson*

g----------------------------------------------|
d----------------------------------------------|
a----------------------------------------------|
d---0~~~-00-0~~~-000-77-7-77-7-77-33-3-33-3-33-|x2

piano part:

g-----------------------|
d-----------------------|
a-----22222-2-----------|
d---0----------7777-777-|

*somtimes*

g---------------------------------|
d---------------------------------|
a---------22-22-22-22-------------|
d---0~--0-------------77-77-77-77-|

*your eyes*

g------------------|
d------------------|
a------------------|
d---0~-7~-3~-00000-|

*let the walls* (this should be corect tell if not)

g--------------------------------|
d--------------------------------|repet until next part
a---------4-4-44-----4-4-----4-4-|
d---0-0----------0-0-----0-0-----|

*there's no convosation*
g-------------|
d-------------|
a-------------|
d---00-----33-|

*wake from*
g------------------|
d------------------|
a------------------|
d---000-00--333-33-|

Ending:
g---------------|
d---------------|
a---------------|
d---000-00--000-|(until its over)

any comments, or anyhting contact me at *
peace out


Enviada por Sem inscrição
Nº de acordes: