intro
g-------------------
d-------------------
a-------------------
e--2------2/14------

estou a beira da loucura
g----------
d----------
a----------
e--3---2---

ninguem mais me segura
g--------12-x-11-x--9--------
d-2/11-----------------12^---
a----------------------------
e----------------------------

to fora dessa vida e eu ja
g------15--------13-15--15/17^-15-13
d--13-------13------------------
a-------------------------------
e-------------------------------

fui  quero a minha liberdade
g----------------------
d----------------------
a-------------4--------
e--2-------------------
b----------------------

posso ate sentir saudades
g--------15--13-11------------
d--------------------13--11-----
a--4/13-----------------------
e----------------------
b----------------------

mais meu amor não da mais pra vc tanto faz
eu me entrego ja fui eu quero a felicidade
saber da verdade quem gosta de mim
g---------------------|------------------------------
d---------------------|------------------------------
a-------2-------------|---------2-----4--------------
e--4-4--------2--2-2--|--4--4------------5-----------
b---------------------|---------------------3----1---

refrão
g--------------------------------------------------------------------------------------------
d--------------------------------------------------------------------------------------------
a--10/4--4-4-------4----4-4-------4--2--2-------2--2--2-------2------------------------------
e---------------4------------4------------2--------------2---------2--2------2--2-2-------2-
b--------------------------------------------------------------------------2-----------2-----
cont.
g----------------------------------
d----------------------------------
a-4--4----------4----4--4-----4----
e-----------4---------------4------
b----------------------------------
estou aq tao perto me arremate pra vc
(nessa parte vc so faz o do# uma vez ou seja todas notas
o ritimo so uma vez)
g---------------------------------------------------------------
d---------------------------------------------------------------
a--4--4------4----2--2---------2--------------------------------
e---------4--------------4--------------2--2--------2------2----
b-----------------------------------------------2--------2------

n hora do solo d sanfona
g------------------------------------------------------------------------
d------------4h6----------------------------4--2-------------------------
a--4--4-----------4----2--2---------2---------------4-----2--------------
e---------4---------------------2-----------------------------4--2-------
b---------------------------------------------------------------------2-

estou a beira da loucura
g------------------------------------------------------------------------------------------
d------------------------------------------------------------------------------------------
a-------------------------------4--4--------4--4-4------4---2--2---------2--2-2--------2---
e--2-2-------2---2-2------2-------------2------------2--------------2--------------2-------
b--------2-------------2-------------------------------------------------------------------

cont
g------------------------------------------
d------------------------------------------
a------------------------------------------
e--2--2----------2----2--2---------------2-
b------------2-------------------2---------

quero a minha liberdade
g-------------------------------------------
d-------------------------------------------
a--4-4---------4---------4--4------------4--
e----------4----------------------4---------
b-------------------------------------------

posso ate sentir saudades
g-------------------------
d-----------8-------------
a----------------8--6^----
e---6---------------------
b-------------------------

sei q custa dominar o coração
g-------------------------------------------
d-------------------------------------------
a-2-2-------2----2--2----------2------4--4--
e--------2--------------2-------------------
b-------------------------------------------

a parte do refrao q cai p os slides
faz uma vez assim
g----------
d----------
a----2/16------
e-2/--

depois segue assim e vai repetindo os riff
g---------------------------
d---------------------------
a-4/--16-16/4--4/-16-16/4---
e---------------------------
b---------------------------
QD VOLTA P REFRAO NORMAL VOLTA ASSIM


A|--1---------2------3---4----  

riff du final faça assim p fica tipo o da sanfona
G------------------------|
D---4-----------------4--|
A------6--4---------------
E------------6-4-6--------2--|


Enviada por Sem inscrição
Nº de acordes: