intro versos e refrao
g------------------------------------
d------------------------------------
a--5--5---3--3-----------------------
e--------------------3--3----3---3---

te amo de qualquer jeito

g------------------------
d------------------------
a--5-5-------------------
e---------3---7--5--3----


Enviada por Sem inscrição
Nº de acordes: