Cazuza

Bete Balanço

Cazuza

2.025 exibições
e----------------------    INTRODUÇÃO
a-7---4-5---7---4-5-4-5    Tudo em slap repete duas
d----------------------    vezes
g-9---------9----------

e----------------------    Tudo em slap repete uma  
a-0---2-3---0---2-3-2-3    vezes
d----------------------
g-2---------2----------

e----------------------    Tudo em slap repete duas
a-7---4-5---7---4-5-4-5    vezes
d----------------------
g-9---------9----------
ENTRA A VOZ
Em7 / % / % /% / Am / % /
Em7 /% / % / % / % / % / Am / % /
Em7 / % / B / C / Am / B / C / Am /
Em7 / % /(SOLO DA GUITARRA)Entra a introdução novamente
B /F#m / B /EE DCD / B / Fm# / B / Eº7


Enviada por Sem inscrição
Nº de acordes: