Cássia Eller

Malandragem

Cássia Eller

6.678 exibições
  • Violão
  • Guitarra
  • Teclado
  • Cavaquinho
  • Contra-baixo
  • Bateria
  • Gaita
  • Guitar Pro
Intro 
G -|----------------|- 
D -|----------------|- 
A -|-1--1-1--3--3-3-|- 
E -|----------------|- 

Riff 1 (2x) 
G -|--------------------------------------------------|- 
D -|--------------------------------------------------|- 
A -|-5-----3^5-----5^7-5-----3^5-----3/5\3--3-----3-3-|- 
E -|---3^5-----3^5-------3^5-----3^5----------3-3-----|- 
                         Quem sabe ainda sou uma garotinha...  

G -|-------------------------------|- 
D -|-------------------------------|- 
A -|-------------------------------|- 
E -|-0-1-3--1^3--3-1^3--3-3--3-3-3-|- 

Riff 2 
G -|--------------------------------------------|- 
D -|--------------------------------------------|- 
A -|-5-5--8-7-5--3--3--3-3----------------------|- 
E -|-----------------------6-6-6-5-3--3^6--6--6-|- 


Refrão 
G -|--------------------------------------------|- 
D -|--------------------------------------------|- 
A -|-5---------5-3--3-3--3-3--------------------|- 
E -|---3^5-5-5---------------1--1-1-1--3--3-3-3-|- 
     Eu só pesso à Deus, um pouco de malandragem... 

G -|--------------------------------------------|- 
D -|--------------------------------------------|- 
A -|-5---------5-3--3-3--3-3--------------------|- 
E -|---3^5-5-5---------------1--1-1-1--3--3-3-3-|- 

G -|---------------------------------------------------------------------|- 
D -|---------------------------------------------------------------------|- 
A -|--------3--3-3--3--3-3----5-3---5-3---5-3---5-3---------3--3-3-3-3-5-|- 
E -|-6-5-3------------------------5-----5-----5-----5/6-5-3--------------|- 

Riff 3 
G -|------------------------------------------------|- 
D -|------------------------------------------------|- 
A -|----------------------0-1-3--3--3-3-3-3--5--5-5-|- 
E -|-3--3-3--3-3---1--1-1---------------------------|- 
Eu ando na rua, tomo meu piléque... 

G -|-----------------------------------------|- 
D -|-----------------------------------------|- 
A -|-8-7-5--------------------5-----3^5--5-5-|- 
E -|-------8-6-5-3--3^6-6-5-3---3^5----------|- 


Enviada por Sem inscrição
Nº de acordes: