Cartel

If I Fail

Cartel

35 exibições
Verse:
G|---------------------------------------------------------------------------|
D|---------------------------------------------------------------------------|
A|-666--------------666-----------666666----------------6666666--------------|
E|-----666-2222222-----666-22222---------6666666-222222--------6666666-222222|

Pre-Chorus:
G|---------------------------------------------------------------------------|
D|---------------------------------------------------------------------------|
A|-666------------------------6666-------------------------------------------|
E|-----6666-444-666-22222222------6666-4444-2222222--------------------------|

Chorus:
G|---------------------------------------------------------------------------|X4
D|---------------------------------------------------------------------------|
A|-4444----------------------------------------------------------------------|
E|-----4444-6666-2222--------------------------------------------------------|

Repeat verse, pre-chorus and chorus

Rest

Bridge:
G|---------------------------------------------------------------------------|
D|---------------------------------------------------------------------------|
A|-66666666----------66666666--------------666666------6666666-------------4-|
E|----------22222222---------22222222-44-4-------222222-------2222222-4444---|

Repeat chorus

End on:
G|---------------------------------------------------------------------------|
D|---------------------------------------------------------------------------|
A|-44------------------------------------------------------------------------|
E|----44-6-6666-2~-----------------------------------------------------------|


Enviada por Sem inscrição
Nº de acordes: