Introdução (Repete 2 vezes) 
G -|------------------------------------------------------------------|- 
D -|------------------------------------------------------------------|- 
A -|--5--5-5-5-5-5-5--------------------------------------------------|- 
E -|------------------3--3-3-3-3-3-3--0--0-0-0-0-0-0--5--5-5-5-5-5-5--|- 
.. Aos 17 anos já fugiu de casa, deixou para trás .. 

Riff 1 (2 vezes) 
G -|------------------------|- -|-------------------------|- 
D -|------------------------|- -|-------------------------|- 
A -|--2~-2-----2~--------0--|- -|--0-0-0-0-0-0-0-0-0-0-0--|- 
E -|-------3-3----0--0-0----|- -|-------------------------|- 
.. Com passos sem pensar, um outro dia um outro lugar.. 

G -|----------------------------------------------------------|- 
D -|----------------------------------------------------------|- 
A -|----------------------------2--2--2-2-2--0-2--2--2-2-2-0--|- 
E -|--3--3--3-3-3--5--5--5-5-5--------------------------------|- 
.. O Mundo vai acabar, e ela só quer dançar .. 

G -|-------------------------------------|- 
D -|-------------------------------------|- 
A -|--2--2-2-2-2-2-2---------------------|- 
E -|-----------------5-5-5-5-5-5-5-5-5~--|- 
.. e ela só quer dançar, dançar, dançar.. (pneus de carros cantam:)  

G -|------------------------------------------------------------------|- 
D -|------------------------------------------------------------------|- 
A -|--5--5-5-5-5-5-5--------------------------------------------------|- 
E -|------------------3--3-3-3-3-3-3--0--0-0-0-0-0-0--5--5-5-5-5-5-5--|- 
.. tchu ru ru ru.. 


Enviada por Sem inscrição
Nº de acordes: