Fátima- Capital Inicial
                              
G||--7--7--5-----7--7--5-----|
D||-----------7-----------7--|
A||--------------------------|
E||--------------------------|


                           
--7--7--5-----7--7--5-----|
-----------7-----------7--|
--------------------------|
--------------------------|


                         
-----------------10--9--|
--8------8----8---------|
------------------------|
------------------------|


                      
---------------------|
--10-----------------|
---------------------|
----------8----------|


                           
--7--7--5-----7--7--5-----|
-----------7-----------7--|
--------------------------|
--------------------------|


                           
--7--7--5-----7--7--5-----|
-----------7-----------7--|
--------------------------|
--------------------------|


                          
---------15--------------|
--8----------------------|
---------------12--13----|
-------------------------|


                          
-------------------------|
--10--------10--10-------|
-------------------------|
----------------------8--|


                         
--7------5--7--5-----5--|
------------------7-----|
------------------------|
------------------------|


                           
--7--7----5--7--9--10--9--|
--------------------------|
--------------------------|
--------------------------|


                        
-----------------------|
--8------8----7--8--7--|
-----------------------|
-----------------------|


                       
------------5------5--|
----------------------|
----------------------|
--8------8------------|


                         
--7------5--7--5-----5--|
------------------7-----|
------------------------|
------------------------|


                           
--7--7----5--7--9--10--9--|
--------------------------|
--------------------------|
--------------------------|


                        
-----------------------|
--8------8----7--8--7--|
-----------------------|
-----------------------|


                       
------------5------5--|
----------------------|
----------------------|
--8------8------------|


                         
--7------5--7--5-----5--|
------------------7-----|
------------------------|
------------------------|


                           
--7--7----5--7--9--10--9--|
--------------------------|
--------------------------|
--------------------------|


                        
-----------------------|
--8------8----7--8--7--|
-----------------------|
-----------------------|


                       
------------5------5--|
----------------------|
----------------------|
--8------8------------|


                         
--7------5--7--5-----5--|
------------------7-----|
------------------------|
------------------------|


                           
--7--7----5--7--9--10--9--|
--------------------------|
--------------------------|
--------------------------|


                        
-----------------------|
--8------8----7--8--7--|
-----------------------|
-----------------------|


                       
------------5------5--|
----------------------|
----------------------|
--8------8------------|


                       
--7--7------7--7------|
----------------------|
----------------------|
----------------------|


                      
--7--7----5----------|
---------------------|
---------------------|
---------------------|


                       
--7--7------7--7------|
----------------------|
----------------------|
----------------------|


                      
----------2----------|
--0--0---------------|
---------------------|
---------------------|


                       
--7--7------7--7------|
----------------------|
----------------------|
----------------------|


                      
--7--7----5----------|
---------------------|
---------------------|
---------------------|


                       
--7--7------7--7------|
----------------------|
----------------------|
----------------------|


                      
----------2----------|
--0--0---------------|
---------------------|
---------------------|


                           
--7--7--5-----7--7--5-----|
-----------7-----------7--|
--------------------------|
--------------------------|


                           
--7--7--5-----7--7--5-----|
-----------7-----------7--|
--------------------------|
--------------------------|


                          
---------15--------------|
--8----------------------|
---------------12--13----|
-------------------------|


                          
-------------------------|
--10--------10--10-------|
-------------------------|
----------------------8--|


                         
--7------5--7--5-----5--|
------------------7-----|
------------------------|
------------------------|


                           
--7--7----5--7--9--10--9--|
--------------------------|
--------------------------|
--------------------------|


                        
-----------------------|
--8------8----7--8--7--|
-----------------------|
-----------------------|


                       
------------5------5--|
----------------------|
----------------------|
--8------8------------|


                         
--7------5--7--5-----5--|
------------------7-----|
------------------------|
------------------------|


                           
--7--7----5--7--9--10--9--|
--------------------------|
--------------------------|
--------------------------|


                        
-----------------------|
--8------8----7--8--7--|
-----------------------|
-----------------------|


                       
------------5------5--|
----------------------|
----------------------|
--8------8------------|


                         
--7------5--7--5-----5--|
------------------7-----|
------------------------|
------------------------|


                           
--7--7----5--7--9--10--9--|
--------------------------|
--------------------------|
--------------------------|


                        
-----------------------|
--8------8----7--8--7--|
-----------------------|
-----------------------|


                       
------------5------5--|
----------------------|
----------------------|
--8------8------------|


                         
--7------5--7--5-----5--|
------------------7-----|
------------------------|
------------------------|


                           
--7--7----5--7--9--10--9--|
--------------------------|
--------------------------|
--------------------------|


                        
-----------------------|
--8------8----7--8--7--|
-----------------------|
-----------------------|


                       
------------5------5--|
----------------------|
----------------------|
--8------8------------|


                         
--7------5--7--5-----5--|
------------------7-----|
------------------------|
------------------------|


                           
--7--7----5--7--9--10--9--|
--------------------------|
--------------------------|
--------------------------|


                        
-----------------------|
--8------8----7--8--7--|
-----------------------|
-----------------------|


                       
------------5------5--|
----------------------|
----------------------|
--8------8------------|


                         
--7------5--7--5-----5--|
------------------7-----|
------------------------|
------------------------|


                           
--7--7----5--7--9--10--9--|
--------------------------|
--------------------------|
--------------------------|


                        
-----------------------|
--8------8----7--8--7--|
-----------------------|
-----------------------|


                       
------------5------5--|
----------------------|
----------------------|
--8------8------------|


                        
--7---------7--7-------|
---------7----------7--|
-----------------------|
-----------------------|


                        
--7---------7--7-------|
---------7----------7--|
-----------------------|
-----------------------|


                            
--10------10--10--9--------|
-----------------------10--|
---------------------------|
---------------------------|


                       
----------------------|
--------10--10--------|
----------------------|
----------------------|


                        
--7---------7--7-------|
---------7----------7--|
-----------------------|
-----------------------|


                        
--7---------7--7-------|
---------7----------7--|
-----------------------|
-----------------------|


                            
--10------10--10--9--------|
-----------------------10--|
---------------------------|
---------------------------|


                    
-------------------|
-------------------|
-------------------|
--------8----------|


                        
--7---------7--7-------|
---------7----------7--|
-----------------------|
-----------------------|


                        
--7---------7--7-------|
---------7----------7--|
-----------------------|
-----------------------|


                            
--10------10--10--9--------|
-----------------------10--|
---------------------------|
---------------------------|


                       
----------------------|
--------10--10--------|
----------------------|
----------------------|


                        
--7---------7--7-------|
---------7----------7--|
-----------------------|
-----------------------|


                        
--7---------7--7-------|
---------7----------7--|
-----------------------|
-----------------------|


                            
--10------10--10--9--------|
-----------------------10--|
---------------------------|
---------------------------|


                    
-------------------|
-------------------|
-------------------|
--------8----------|


                         
--7------5--7--5-----5--|
------------------7-----|
------------------------|
------------------------|


                           
--7--7----5--7--9--10--9--|
--------------------------|
--------------------------|
--------------------------|


                        
-----------------------|
--8------8----7--8--7--|
-----------------------|
-----------------------|


                       
------------5------5--|
----------------------|
----------------------|
--8------8------------|


                         
--7------5--7--5-----5--|
------------------7-----|
------------------------|
------------------------|


                           
--7--7----5--7--9--10--9--|
--------------------------|
--------------------------|
--------------------------|


                        
-----------------------|
--8------8----7--8--7--|
-----------------------|
-----------------------|


                       
------------5------5--|
----------------------|
----------------------|
--8------8------------|


                         
--7------5--7--5-----5--|
------------------7-----|
------------------------|
------------------------|


                           
--7--7----5--7--9--10--9--|
--------------------------|
--------------------------|
--------------------------|


                        
-----------------------|
--8------8----7--8--7--|
-----------------------|
-----------------------|


                       
------------5------5--|
----------------------|
----------------------|
--8------8------------|


                         
--7------5--7--5-----5--|
------------------7-----|
------------------------|
------------------------|


                           
--7--7----5--7--9--10--9--|
--------------------------|
--------------------------|
--------------------------|


                        
-----------------------|
--8------8----7--8--7--|
-----------------------|
-----------------------|


                       
------------5------5--|
----------------------|
----------------------|
--8------8------------|


                         
--7------5--7--5-----5--|
------------------7-----|
------------------------|
------------------------|


                           
--7--7----5--7--9--10--9--|
--------------------------|
--------------------------|
--------------------------|


                        
-----------------------|
--8------8----7--8--7--|
-----------------------|
-----------------------|


                       
------------5------5--|
----------------------|
----------------------|
--8------8------------|


                         
--7------5--7--5-----5--|
------------------7-----|
------------------------|
------------------------|


                           
--7--7----5--7--9--10--9--|
--------------------------|
--------------------------|
--------------------------|


                        
-----------------------|
--8------8----7--8--7--|
-----------------------|
-----------------------|


                       
------------5------5--|
----------------------|
----------------------|
--8------8------------|


                         
--7------5--7--5-----5--|
------------------7-----|
------------------------|
------------------------|


                           
--7--7----5--7--9--10--9--|
--------------------------|
--------------------------|
--------------------------|


                        
-----------------------|
--8------8----7--8--7--|
-----------------------|
-----------------------|


                       
------------5------5--|
----------------------|
----------------------|
--8------8------------|


                         
--7------5--7--5-----5--|
------------------7-----|
------------------------|
------------------------|


                           
--7--7----5--7--9--10--9--|
--------------------------|
--------------------------|
--------------------------|


                     
--------------------|
--8--8--------------|
--------------------|
--------------------|


                     
--5--5--------------|
--------------------|
--------------------|
--------------------|


                                       
-------------------|
-------------------|
--5----------------|
-------------------|


Enviada por Sem inscrição
Nº de acordes: