Caetano Veloso

Sozinho

Caetano Veloso

4.208 exibições
  • Violão
  • Guitarra
  • Teclado
  • Cavaquinho
  • Contra-baixo
  • Bateria
  • Gaita
  • Guitar Pro
    Tentem executar todos os hammers-on e os "atalhos" para chegar
às próximas casas.A música fica muito mais enriquecida e segue bem
a melodia do violão.  

1a.parte

G-|-------2h4----------|--------2h4----------|
D-|-----0-4--2-2-------|-----0-4---2-2-------|
A-|5-4-2---------------|5-4-2----------------|
E-|-------------5-5-5h7|--------------5-5-5h7|
  Às vezes no silêncio da noite...

2a.parte

G-|--------------|----------|-----------|
D-|--------------|----------|-----------|
A-|0-1-2---------|2---------|2-------2h5|
E-|-----2-3-3-3-3|-2-0-0-0-0|-2-3-3-3---|
  Por que você me deixa...

1a.parte(2x)

2a.parte

3a.parte

G-|--------------------------------|
D-|--------2-2---------------------|
A-|5-4--5-5---3-3---5-4-2-2-2-2---5|
E-|---3----------5-7-----------3-5-|
  Quando a gente gosta... 

G-|-------------------------------------|
D-|---------------2-2-------------------|
A-|-------5-4--5-5---3-3h4-5-2-2-2-2---5|
E-|5-5-5-7---3----------------------3-5-|
  Quando a gente gosta...


Enviada por Sem inscrição
Nº de acordes: