Bob Marley

Buffalo Soldier

Bob Marley

929 exibições
Vou separar a música em 3 bases(visto que elas repetem bastante independente da letra):
A ordem em que as bases são tocadas está no fim da tablatura.

BUFFALO SOLDIER

INTRO(durante o trumpete): A7

***BASE 1***
G-------------------------------------------
D-------------------------4-4-2--------2----
A-------------------------------4----4------
E-5-5-5--5-5--5-5-5--5-5----------5------5-5

***BASE 2***
G---------------------------------------------------
D---------------------------------------------------
A-5-5-5-0-4-4-0---5-5-5-0-4-4-0---4-4-4-0-2-2-2-----
E-----------------------------------------------2-2-

***BASE 3***
G-------------------------------------------
D-------------------------------------------
A-------------------------5-5-5-7-5-4-4-----
E-2-2-2--2-2--2-2-2--2-2--------------------

G-------------------------------------------
D-------------------------------------------
A-------------------------5-5-5-7-5-4--7----
E-2-2-2--2-2--2-2-2--2-2--------------------
********************************************
-ORDEM DAS BASES:
INTRO
BASE 1 (4vezes)
Base 2 (2vezes)
BASE 1 (4vezes)
BASE 2 (2vezes)
BASE 1 (8vezes)
BASE 3 (1vez)
BASE 1 (repete várias vezes até acabar a música)


Enviada por Sem inscrição
Nº de acordes: