Bob Marley

Bend Down Low

Bob Marley

431 exibições
G----------------2-4-5---|------------------------|
D----2-5-2-5-3-5-------5-|----2-5-2-5-3-2---------| Intro
A--3---------------------|--3-------------5-3-----|
E------------------------|------------------------|

G--------------2---------|
D----2-5--0-3------------|Segue até o final
A--3-------------3-------|
E------------------------|


Enviada por Sem inscrição
Nº de acordes: