Bob Marley

Bad Card

Bob Marley

306 exibições
       INTRO 
G ||--------------------------------------------------||  
D ||--3--2--O-----------------------------------------||  
A ||-------------5------------------------------------||  
E ||-----------5------3-3-3-3----3-3-3-3----3-3-3-3---|| 
  
      CHORUS 
G ||-5-5--2-O-----------------------------------------||  
D ||----------2---------------------------------------||  
A ||--------------------------------------------------||   
E ||--------------3-3-3-3---5-5-O-5--5--3-3-3-3-------|| 
 
    
G ||-5-5--2-O-----------------------------------------||  
D ||----------2---------------------------------------||  
A ||--------------------------------------------------||  
E ||--------------3-3-3-3----5-5-O-5-5-----5-5-O-5-5--||        
  
      VERSO
G ||-------------------------|----------------------------------||  
D ||-------------------------|----------------------------------||  
A ||-----------3-3-----3-----|---------------3-3-3--3-----------||  
E ||-1-1-1-1---------3--3----|-1-1-1--3-3-3-------------3-3-3-3-|| 
 
      BRIDGE 
G ||-----------------------------------------------|------------||  
D ||-3-3--2-2-2------------------------------------|------------||  
A ||--------------5--5--5--------5-5---------5-----|-------5----||  
E ||---------------------------5---------3-3---3-3-|---3-3---3--|| 


Enviada por Sem inscrição
Nº de acordes: