Bob Marley

400 Years

Bob Marley

457 exibições
theres no bass in the intro 
  
Verse:

----------------------------------------------------------------------
----------------------------------------------------------------------
--------5----------5--6--5------------5--6--5-------------------------
--3--6-------3--6------------6---3--6----------6---3------------------

----------------------------------------------------------------------
--------5-----------5--6--5-------------------------------------------
--3--6-------3--6------------6---------5--6--5------------------------
----------------------------------3--6----------6---3-----------------

chorus:

----------------------------------------------------------------------
-------8-------------------0--------------7-7--7-----------7-7--7-----
-----------8-------------6--------------5----------3--4--5----------5-
---6---------6--7--8---------8----6-------------------------------5---

thats all the song 

the guitat cords are:

verse: Gm Cm Gm

chorus: A# Cm D


Enviada por Sem inscrição
Nº de acordes: