Barão Vermelho

Bete Balanco

Barão Vermelho

3.781 exibições
Parte 1
   T  P  T     T  P  T         
E ----9-----------9------------
D -----------------------------
A -7-----4h5---7-----4h5h4h5---
E -----------------------------

    T   P   T     T   P   T
G --------------------------------------
D ------7-------------7-----------------
A ----------2h3-----------2h3h2h3-------
E --5-------------5---------------------

Parte2

G -----------------------------------------------
D -----------------------------------------------
A --2-2---3--------2-2--3-3-3-3-3-5--------------
E ----------5--3h5-------------------------------

Parte 1

Parte 3

G -----------------------------------------------
D -----------------------------------------------
A -2-2------2-2---7-7-5-5-3---2-2---3------------
E ------2-2--------------------------------------


Enviada por Sem inscrição
Nº de acordes: