Armandinho

Pescador

Armandinho

964 exibições
introducao junto com guita
g--------------------------
d-------2---4-2------------
a----4----------4-2--------
e--2-----------------4-2---

estrofe e refrão repet até uma altura

g--------------------------
d---------------4----------
a-----4--4--6-6---6--------
e--22-4--4---------7-9-9---


Enviada por Sem inscrição
Nº de acordes: