Allister

The One That Got Away

Allister

56 exibições
Intro 2x
G |-----------------------|
D |-----------------------| 
A |----------5-5-5--7-7-7-|
E |-5-5-5-5---------------|

Verse 2x
G |------------------------------------|
D |------------------------------------| 
A |----------5-5-5-5-----------7-7-7-7-|
E |-2-2-2-2-----------5-5-5-5----------|

Intro 2x
Verse 2x

Chorus 1x
G |---------------------------------------------------|
D |---------------------------------------------------|
A |-5-5-5-5--7-7-7-7-----------------5-5-5-5--7-7-7-7-|
E |-------------------5--4--2-2-2-2-------------------|

Chorus Ending 2x
G |------------|
D |------------| 
A |----4-5-7-5-|
E |-5----------|

Intro 2x
Verse2x
Intro 2x
Verse2x
Chorus 1x
Chorus Ending 2x

Bridge 3x
G |------------------------------------|
D |------------------------------------| 
A |----------2-2-2-2--5-5-5-5--2-2-2-2-|
E |-2-2-2-2----------------------------|

Bridge Ending 1x
G |------------------|
D |------------------| 
A |-5-5-5-5--7-7-7-7-|
E |------------------|

Chorus 1x
Bridge Ending 2x
Chorus Ending 2x

G |-------|
D |-------|
A |-5~--5-|
E |-------|


Enviada por Sem inscrição
Nº de acordes: