Allister

Racecars

Allister

5 exibições
Intro/Verse
G---------------------------------------|
D---------------------------------------|  x4
A-------------------5-5-5-55-7-7-7-77---|
E-5-5-5-55-7-7-7-77---------------------|

Prechorus
G---------------------------------------|
D---------------------------------------|  x2
A-55555555-77777777---------------------|
E-------------------55555555-22222222---|

G---------------|
D---------------|
A-55555555---7~-|
E---------------|

Chorus
G----------------------|
D----------------------|  x4
A-----------77777777---|
E-5555-7777------------|

G---------------|
D---------------|
A-55555555---7~-|
E---------------|

Verse
G------------------------------------------|
D------------------------------------  x10-|
A-------------------5-5-5-55-7-7-7-77------|
E-5-5-5-55-7-7-7-77------------------------|

Prechorus
G---------------------------------------|
D---------------------------------------|  x2
A-55555555-77777777---------------------|
E-------------------55555555-22222222---|

G---------------|
D---------------|
A-55555555---7~-|
E---------------|

Chorus
G----------------------|
D----------------------|  x4
A-----------77777777---|
E-5555-7777------------|

G---------------|
D---------------|
A-55555555---7~-|
E---------------|

Interlude
G---------------|
D---------------|  x3
A-------55-77---|
E-55-77---------|

G-------------------|
D-------------------|
A----------55555555-|
E-55555555----------|

End Chorus
G----------------------|
D----------------------|  x8
A-----------77777777---|
E-5555-7777------------|

G-------------------|
D-------------------|
A-55555555---7~-----|
E----------------55-|


Enviada por Sem inscrição
Nº de acordes: